Cifra Club

Tu És Fiel, Senhor

Hinário Novo Cântico

Cifra: Principal (violão e guitarra)
tom: Gm
E|-----------|------------|-----------|-----------|-----8---10-|-8----------|
B|-----8---8-|-8---8----6-|-6---9---9-|-9---9---8-|------------|-----11---9-|
G|-----8---8-|-8---8----8-|-8---7---8-|-10--8---8-|-----8---8--|-8---8----7-|
D|-----------|------------|-----------|-----------|------------|------------|
A|-----------|------------|-----------|-----------|------------|------------|
E|-----------|------------|-----------|-----------|------------|------------|

E|-----------|----------|---------8--|-10--11---10-|-8----------|------------|
B|-8-------8-|-10--11---|-----11-----|-9---8----11-|-----11--9--|-8---8------|
G|-8---10--9-|-8---7----|-----13--13-|-------------|-13--12--10-|-8---8---10-|
D|-----------|----------|------------|-------------|------------|---------13-|
A|-----------|----------|------------|-------------|------------|------------|
E|-----------|----------|------------|-------------|------------|------------|

E|---------10-|-11--11------|-8---------|----------|-----6---6-|-----------|
B|-----13-----|----------11-|-8---8---8-|-6--------|-----------|-6---9-8-8-|
G|-----11--11-|-11--12---12-|-----8---7-|-----8----|-----7---7-|-7---8-8-8-|
D|------------|-------------|-----------|-8---8----|-----------|-----------|
A|------------|-------------|-----------|----------|-----------|-----------|
E|------------|-------------|-----------|----------|-----------|-----------|

E|-----8---8-|--------------|------------|-10--11-----|-8---10--11-|-8--------|
B|-----------|-8---11-9--9--|-----11--13-|---------11-|-8-------8--|-----11---|
G|-----9---9-|-9---10-10-10-|-----13--13-|-13--12--12-|-----10-----|-8---7----|
D|-----------|--------------|------------|------------|------------|----------|
A|-----------|--------------|------------|------------|------------|----------|
E|-----------|--------------|------------|------------|------------|----------|

E|---------8--|-10--11---10-|-8----------|------------|---------10-|-11--11------|
B|-----11-----|-9---8----11-|-----11--9--|-8---8------|-----13-----|----------11-|
G|-----13--13-|-------------|-13--12--10-|-8---8---10-|-----11--11-|-11--12---12-|
D|------------|-------------|------------|---------13-|------------|-------------|
A|------------|-------------|------------|------------|------------|-------------|
E|------------|-------------|------------|------------|------------|-------------|

E|-------------|-------------|----------|
B|-11----------|-------------|----------|
G|-12-------12-|--13---------|----------|
D|----------13-|--12--12--13-|----------|
A|-------------|------13--13-|----------|
E|-------------|-------------|----------|

00:00 / 00:00
Outros vídeos desta música
Repetir
Outros vídeos desta música
Compositor não encontrado.
Colaboração e revisão:
  • Helon Oliveira
1.833 exibições
    • ½ Tom
    • Am
    • Bbm
    • Bm
    • Cm
    • C#m
    • Dm
    • Ebm
    • Em
    • Fm
    • F#m
    • Gm
    • G#m
  • Adicionar à lista

    0 comentários

    Ver todos os comentários

    Conseguiu tocar?

    0 Tocaram 0 Ainda não

    Grave um vídeo tocando Tu És Fiel, Senhor e nos envie!

    Entre para oCifra Club PRO

    Tenha acesso a benefícios exclusivos no App e no Site

    • Chega de anúncios

    • Prioridade de compra em lançamentos

    • Mais recursos no app do Afinador

    • Atendimento Prioritário

    • Descontos nos produtos Cifra Club

    • Ajude a produzir mais conteúdo

    00:00 / 00:00

    Cifra Club Pro

    Aproveite o Cifra Club com benefícios exclusivos e sem anúncios
    Cifra Club Pro
    Aproveite o Cifra Club com benefícios exclusivos e sem anúncios
    OK