Cifra Club

Um Novo Caminho

Hinos Avulsos CCB

Cifra: Principal (violão e guitarra)
Tom: F# (forma dos acordes no tom de E) Capotraste na 2ª casa
[Intro] E  G#m  A9  F#m9  B4
   
   E                Bm
E|-----0---------------------------------------------|
B|--------------------------4------------------------|
G|-1-------1-2-4/6--4---4-------4--------------------|
D|-2-2---2----------6--------------------------------|
A|-2----------------6--------------------------------|
E|-0----------------4-4---4---4----------------------|

   A9    F#m9            B4
E|---------------------------------------------------|
B|-----0--------5-----5--5-----------------5---------|
G|-1-2---2----2-----2----4------4-----4----4---------|
D|-2-----4--4-----4------4--4/6---2/4---4--4---------|
A|-0---------------------2-----------------2---------|
E|-------2-------------------------------------------|

[Primeira Parte]

       E
Ah Senhor estou desanimado
        G#m
Nessa prova que eu estou passando
        A9                 F#m
Eu não vejo ao menos um caminho
        B4
Que eu venha se me alegrar

          E
Todos os dias eu estou chorando
          G#m
Todos os dias eu estou sofrendo
      A9                 F#m
O Senhor venha ao meu encontro
        B
Provas para mim que tu me amas

[Pré-Refrão]

        A9                      B
Não consigo ao menos fazer uma simples humilde oração
        G#m                   Em
Não consigo ao menos ter uma fé viva no meu coração
       F#m                    B4    E   E4  E
Já se foi a minha esperança, no Senhor

[Refrão]

           A9                  B
Um novo caminho o Senhor já criou irmão
         G#m        Em
Não desanime escute essa canção
          F#m      B             E  E4  E
Nova alegria surgirá em teu coração 

( A9  B  G#m  C#m)
( F#m  B  E  E4  E )

[Segunda Parte]

            A9           B4
Falo o que sinto em meu coração
          G#m
O que passou, passou, passou
          C#m                     F#m
Mas nada foi em vão tudo o que você passou
     B                   E  E4  E
Tudo era programado por Deus

[Pré-Refrão]

        A9             B
Na sua vida Deus vai aparecer
           G#m                Em
Tenhas um pouco de fé dentro de você
        F#m                   B                E
Pois o Deus que amamos ele jamais irá te esquecer

[Refrão]

           A9                  B
Um novo caminho o Senhor já criou irmão
         G#m        Em
Não desanime escute essa canção
          F#m      B             E  E4  E
Nova alegria surgirá em teu coração 

[Final] A9  B  G#m  C#m
        F#m  B  E  E4  E
exibições 46.421
Acordes para:
    Colaboração e revisão:
    • Thiago Almeida
    • Thiago Joseph
    • Douglas L.S

    0 comentários

    mostrar mais comentários

    Conseguiu tocar?

    0 tocaram 0 ainda não

    Grave um vídeo tocando Um Novo Caminho e mande pra gente!

    00:00 / 00:00
    outros vídeos desta música
    repetir qualidade Automático
    Outros vídeos desta música
    00:00 / 00:00
    Automático
    OK