Cifra Club

Hino Oficial do Club de Regatas Vasco da Gama

Hinos de Futebol

Cifra: Principal (violão e guitarra)
tom: A
[Intro] Ab    Eb  Cm  F7  Bb7  Eb  Bb

   Ab            Eb      Cm
E|----------------------------------------------------|
B|-----------------4-4-4-4-4--4-----------------------|
G|-5-5-5---5-5-5---3-3-3-3-5--5-----------------------|
D|-6-6-6---4-4-4---5-5-5-5-5--5-----------------------|
A|-6-6-6---6-6-6---6-6-6-6-3--3-----------------------|
E|-4-4-4---5-5-5--------------------------------------|

   F7              Bb7             Eb
E|----------------------------------------------------|
B|-1-----1-----1-------3---3---------4----------------|
G|-2-----2-----2-------1---1---------3----------------|
D|-1-----1-----1-------3---3---------5----------------|
A|-----------------1-------1-------6------------------|
E|-1-------1------------------------------------------|

   Bb
E|----------------------------------------------------|
B|---4---4---4-4--------------------------------------|
G|---3---3---3-3------------------------5-3-----------|
D|---5---5---5-5------------------3-5-6---------------|
A|-----6-------6----------------6---------------------|
E|-6-------6--------6---6---6-------------------------|

[Primeira Parte]

       Eb       Bb7        Eb
Vamos todos cantar de coração
           Ab        C7     Fm
A cruz de malta é o meu pendão
                        C7          Fm
Tu tens o nome de um heróico português
          Bb       Ab            Eb/G
Vasco da Gama sua fama assim se fez

   Eb              Bb7
E|----------------------------------------------------|
B|-4-----4-----4-------3---3--------------------------|
G|-3-----3-----3-------1---1--------------------------|
D|-5-----5-----5-------3---3--------------------------|
A|-6-------6-------1-------1--------------------------|
E|----------------------------------------------------|

   Eb
E|----------------------------------------------------|
B|-4-----4-----4-------4---4--------------------------|
G|-3-----3-----3-------3---3--------------------------|
D|-5-----5-----5-------5---5--------------------------|
A|-6-------6-------6-------6--------------------------|
E|----------------------------------------------------|

   Ab              C7
E|----------------------------------------------------|
B|---------------------1---1--------------------------|
G|-5-----5-----5-------3---3--------------------------|
D|-6-----6-----6-------2---2--------------------------|
A|-6-----6-----6---3-------3--------------------------|
E|-4-------4------------------------------------------|

   Fm
E|----------------------------------------------------|
B|-1-----1-----1-------1---1--------------------------|
G|-1-----1-----1-------1---1--------------------------|
D|-3-----3-----3-------3---3--------------------------|
A|----------------------------------------------------|
E|-1-------1-------1-------1--------------------------|

   Fm              C7
E|----------------------------------------------------|
B|-1-----1-----1-------1---1--------------------------|
G|-1-----1-----1-------3---3--------------------------|
D|-3-----3-----3-------2---2--------------------------|
A|-----------------3-------3--------------------------|
E|-1-------1------------------------------------------|

   Fm
E|----------------------------------------------------|
B|-1-----1-----1-------1---1--------------------------|
G|-1-----1-----1-------1---1--------------------------|
D|-3-----3-----3-------3---3--------------------------|
A|----------------------------------------------------|
E|-1-------1-------1-------1--------------------------|

   Bb              Ab
E|----------------------------------------------------|
B|----------------------------------------------------|
G|-7-----7-----7-------5---5--------------------------|
D|-8-----8-----8-------6---6--------------------------|
A|-8-----8-----8-------6---6--------------------------|
E|-6-------6-------4-------4--------------------------|

   Eb/G
E|----------------------------------------------------|
B|----------------------------------------------------|
G|-4-----4-----4-------4---4--------------------------|
D|-3-----3-----3-------3---3--------------------------|
A|-1-----1-----1-------1---1--------------------------|
E|-3-------3-------3-------3--------------------------|

[Segunda Parte]

      Eb       Db7          C7
Tua imensa torcida é bem feliz
       Fm        C7           Fm
Norte-sul Norte-sul deste Brasil
        Ab       Eb          Cm     F7   Bb7 Eb
Tua estrela    na terra a brilhar ilumina  o  mar

   Eb              Db7
E|----------------------------------------------------|
B|-4-----4-----4-------2---2--------------------------|
G|-3-----3-----3-------4---4--------------------------|
D|-5-----5-----5-------3---3--------------------------|
A|-6-------6-------4-------4--------------------------|
E|----------------------------------------------------|

   C7
E|----------------------------------------------------|
B|-1-----1-----1-------1---1--------------------------|
G|-3-----3-----3-------3---3--------------------------|
D|-2-----2-----2-------2---2--------------------------|
A|-3-------3-------3-------3--------------------------|
E|----------------------------------------------------|

   Fm              C7
E|----------------------------------------------------|
B|-1-----1-----1-------1---1--------------------------|
G|-1-----1-----1-------3---3--------------------------|
D|-3-----3-----3-------2---2--------------------------|
A|-----------------3-------3--------------------------|
E|-1-------1------------------------------------------|

   Fm
E|----------------------------------------------------|
B|-1-----1-----1-------1---1--------------------------|
G|-1-----1-----1-------1---1--------------------------|
D|-3-----3-----3-------3---3--------------------------|
A|----------------------------------------------------|
E|-1-------1-------1-------1--------------------------|

   Ab              Abº
E|----------------------------------------------------|
B|----------------------------------------------------|
G|-5-----5-----5-------5---5--------------------------|
D|-6-----6-----6-------4---4--------------------------|
A|-6-----6-----6-------6---6--------------------------|
E|-4-------4-------5-------5--------------------------|

   Eb              Cm
E|----------------------------------------------------|
B|-4-----4-----4-------4---4--------------------------|
G|-3-----3-----3-------5---5--------------------------|
D|-5-----5-----5-------5---5--------------------------|
A|-6-------6-------3-------3--------------------------|
E|----------------------------------------------------|

   F7              Bb7             Eb
E|----------------------------------------------------|
B|-1-----1-----1-------3---3-------4------------------|
G|-2-----2-----2-------1---1-------3------------------|
D|-1-----1-----1-------3---3-------5------------------|
A|-----------------1-------1-------6------------------|
E|-1-------1------------------------------------------|

(Variação do final da introdução)

           Eb
E|----------------------------------------------------|
B|---------------------------4------------------------|
G|-3-3-------------3-3-----3--------------------------|
D|-----5-3---------------5----------------------------|
A|---------6-----------6------------------------------|
E|-----------------6-6--------------------------------|

( Ab    Eb  Cm  F7  Bb7  Eb  Bb )

[Terceira Parte]

   Eb                Fm       Bb7         Eb
No atletismo és um braço, no remo és imortal
    Cm             Fm        Bb7             Eb
No futebol és um traço de união Brasil-Portugal

   Eb                Fm       Bb7         Eb
No atletismo és um braço, no remo és imortal
    Cm             Fm        Bb7             Eb
No futebol és um traço de união Brasil-Portugal

   Eb
E|----------------------------------------------------|
B|-4-----4-----4-------4---4--------------------------|
G|-3-----3-----3-------3---3--------------------------|
D|-5-----5-----5-------5---5--------------------------|
A|-6-------6-------6-------6--------------------------|
E|----------------------------------------------------|

   Fm
E|----------------------------------------------------|
B|-1-----1-----1-------1---1--------------------------|
G|-1-----1-----1-------1---1--------------------------|
D|-3-----3-----3-------3---3--------------------------|
A|----------------------------------------------------|
E|-1-------1-------1-------1--------------------------|

   Bb7
E|----------------------------------------------------|
B|-3-----3-----3-------3---3--------------------------|
G|-1-----1-----1-------1---1--------------------------|
D|-3-----3-----3-------3---3--------------------------|
A|-1-------1-------1-------1--------------------------|
E|----------------------------------------------------|

   Eb
E|----------------------------------------------------|
B|-4-----4-----4-------4---4--------------------------|
G|-3-----3-----3-------3---3--------------------------|
D|-5-----5-----5-------5---5--------------------------|
A|-6-------6-------6-------6--------------------------|
E|----------------------------------------------------|

   Cm
E|----------------------------------------------------|
B|-4-----4-----4-------4---4--------------------------|
G|-5-----5-----5-------5---5--------------------------|
D|-5-----5-----5-------5---5--------------------------|
A|-3-------3-------3-------3--------------------------|
E|----------------------------------------------------|

   Fm
E|----------------------------------------------------|
B|-1-----1-----1-------1---1--------------------------|
G|-1-----1-----1-------1---1--------------------------|
D|-3-----3-----3-------3---3--------------------------|
A|----------------------------------------------------|
E|-1-------1-------1-------1--------------------------|

   Bb7
E|----------------------------------------------------|
B|-3-----3-----3-------3---3--------------------------|
G|-1-----1-----1-------1---1--------------------------|
D|-3-----3-----3-------3---3--------------------------|
A|-1-------1-------1-------1--------------------------|
E|----------------------------------------------------|

   Eb
E|----------------------------------------------------|
B|-4-----4-----4-------4---4--------------------------|
G|-3-----3-----3-------3---3--------------------------|
D|-5-----5-----5-------5---5--------------------------|
A|-6-------6-------6-------6--------------------------|
E|----------------------------------------------------|

   Eb
E|----------------------------------------------------|
B|-4--------------------------------------------------|
G|-3--3-3---------------------------------------------|
D|-5------5-3-----------------------------------------|
A|-6----------6---------------------------------------|
E|----------------------------------------------------|

( Ab    Eb  Cm  F7  Bb7  Eb  Bb )

[Final]

                         Eb
E|-----------------------11-11-11---------------------|
B|-----------------------8--8--8----------------------|
G|-----------------------8--8--8----------------------|
D|---------------8-------8--8--8----------------------|
A|-6-6-6----6-10---10-6--10-10-10---------------------|
E|--------6--------------11-11-11---------------------|
00:00 / 00:00
Outros vídeos desta música
Repetir
Outros vídeos desta música
Composição de Lamartine Babo
Colaboração e revisão:
  • Getúlio Vasconcelos
  • Philippe Lobo
  • Lucas Holanda
76.834 exibições
  • Simplificar cifra
    • ½ Tom
    • A
    • Bb
    • B
    • C
    • Db
    • D
    • Eb
    • E
    • F
    • F#
    • G
    • Ab
  • Adicionar à lista

    0 comentários

    Ver todos os comentários

    Conseguiu tocar?

    2 Tocaram 1 Ainda não

    Grave um vídeo tocando Hino Oficial do Club de Regatas Vasco da Gama e nos envie!

    Entre para oCifra Club PRO

    Tenha acesso a benefícios exclusivos no App e no Site

    • Chega de anúncios

    • Prioridade de compra em lançamentos

    • Mais recursos no app do Afinador

    • Atendimento Prioritário

    • Descontos nos produtos Cifra Club

    • Ajude a produzir mais conteúdo

    00:00 / 00:00
    Capítulos
    • Início
    • Tocando a música
    • Acordes da Introdução
    • Tocando Introdução
    • Ensinando Introdução
    • Acordes Primeira Parte
    • Tocando Primeira Parte
    • Ensinando Primeira Parte
    • Acordes Segunda Parte
    • Tocando Segunda Parte
    • Ensinando Segunda Parte
    • Acordes Terceira Parte
    • Tocando Terceira Parte
    • Ensinando Terceira Parte
    • Tocando Arranjo Final
    • Ensinando Repetições e Final
    • Encerramento

    Cifra Club Pro

    Aproveite o Cifra Club com benefícios exclusivos e sem anúncios
    Cifra Club Pro
    Aproveite o Cifra Club com benefícios exclusivos e sem anúncios
    OK