Cifra Club

Hino de Florianópolis

Hinos

Cifra: Principal (violão e guitarra)
tom: A
[Primeira Parte]


E|-----------0--------------|
B|--------0-1---3--0--1-0---|
G|-----1-2----------1-------|
D|--2-4-----------------2---|
A|--------------------------|
E|--------------------------|

E|-----------0---------0---|
B|--------0-1---3--0--10---|
G|-----1-2----------1------|
D|--2-4--------------------|
A|-------------------------|
E|-------------------------|

E|--0-0--10----------0---------|
B|----3---3-3----3-3-1-3-1-1---|
G|-----------------------------|
D|-----------------------------|
A|-----------------------------|
E|-----------------------------|

E|----------------------------------|
B|--1-1-0-3-2-1-0--3-2-1-0--3-1-0---|
G|----------------------------------|
D|----------------------------------|
A|----------------------------------|
E|----------------------------------|

E|-----------0---------------|
B|--------0-1---3--0--1-0----|
G|-----1-2----------1----2---|
D|--2-4----------------------|
A|---------------------------|
E|---------------------------|

Am               Dm     E7             Am
"Um pedacinho de terra,      perdido no mar!
Am               Dm    E7          A7
Num pedacinho de terra, beleza sem par
   Dm                Am
Jamais a natureza, reuniu tanta beleza
   E7             E7
Jamais algum poeta teve tanto pra cantar!
Am                Dm   E7               A
Num pedacinho de terra      belezas sem par!

[Segunda Parte]

E|-----------0----------------------------|
B|--2-2-2-2-0-2---0---0-0-0-3-----0-1-2---|
G|-------------------3--2--2-2------------|
D|----------------------------------------|
A|----------------------------------------|
E|----------------------------------------|

E|------------------------------|
B|----0--------0-2-0--------0---|
G|---12--2----12-----2--1-------|
D|--4----4-2-4----------4-3-4---|
A|------------------------------|
E|------------------------------|

E|-----------0----------------------------|
B|--2-2-2-2-1-2---0---0-0-0-3-----0-1-2---|
G|-------------------3--2--2-2------------|
D|----------------------------------------|
A|----------------------------------------|
E|----------------------------------------|

E|--------------------0--------------|
B|--------0---------0-1--3-0--1-0----|
G|-----1-2--2-----1-2--------1---2---|
D|--4-4------4-2-4-------------------|
A|-----------------------------------|
E|-----------------------------------|

A              E                D          C#7
Ilha da moça faceira, da velha rendeira tradicional
D                 A              Bm
Ilha da velha figueira onde em tarde fagueira
         E
Vou ler meu jornal
A            E               D                C#7
Tua lagoa formosa, ternura de rosa, poema ao luar
  D                   A   F#m          Bm     E        Am
Cristal onde a lua vaidosa sestrosa, dengosa vem se espelhar"
Compositor não encontrado.
Colaboração e revisão:
  • Daniel Külkamp
  • Fernando Sonntag
9.575 exibições
    • ½ Tom
    • A
    • Bb
    • B
    • C
    • Db
    • D
    • Eb
    • E
    • F
    • F#
    • G
    • Ab
  • Adicionar à lista

    0 comentários

    Ver todos os comentários

    Conseguiu tocar?

    2 Tocaram 0 Ainda não

    Grave um vídeo tocando Hino de Florianópolis e nos envie!

    00:00 / 00:00
    Outros vídeos desta música
    Repetir Qualidade Automático
    Outros vídeos desta música
    00:00 / 00:00
    Automático

    Cifra Club Pro

    Aproveite o Cifra Club com benefícios exclusivos e sem anúncios
    Cifra Club Pro
    Aproveite o Cifra Club com benefícios exclusivos e sem anúncios
    OK