Miss World

Hole

Composição: Hole
Tom: G
THIS SONG TOOK ME LIKE 2 MINUTES TO FIGURE OUT. ITS A PRETTY GOOD * FUN.

G        A                     C               D

I am the girl you know, can't look you in the eye
G         A                 C             D
I am the girl you know, so sick I cannot try             INTRO
 G            A                   C               D
And I am the one you want, can't look you in the eye
G         A                C              D
I am the girl, you know I lie, I lie and lie

  PLAY THIS FOR THE NEXT PART

-3-3-3-5-5-5-7-7-7-7-7-7---------------------------------|
-3-3-3-5-5-5-7-7-7-7-7-7---------------------------------|
-0-0-0-0-0-0-0-0-0-0-0-0-9-9-9-7-7-7-5-5-5-5-5-5---------|
-0-0-0-0-0-0-0-0-0-0-0-0-9-9-9-7-7-7-5-5-5-5-5-5---------|
-2-2-2-4-4-4-6-6-6-6-6-6-7-7-7-5-5-5-3-3-3-3-3-3---------|
-3-3-3-5-5-5-7-7-7-7-7-7---------------------------------|

I'm miss world, somebody kill me
Kill me pills
No one cares, my friends                 VERSE
My friend
I'm miss world, watch me break and watch me burn
No one is listening, my friend

----------------------------------------------------|
----------------------------------------------------|
-------------------------9-9-9-7-7-7-5-5-5-5-5-5----|
-5-5-5-7-7-7-9-9-9-9-9-9-9-9-9-7-7-7-5-5-5-5-5-5----|
-5-5-5-7-7-7-9-9-9-9-9-9-7-7-7-5-5-5-3-3-3-3-3-3----|
-3-3-3-5-5-5-7-7-7-7-7-7----------------------------|

PLAY THIS FOR THE CHORUS

Now I've made my bed, I'll lie in it
I've made my bed, I'll die in it
I've made my bed, I'll lie in it          CHORUS
I've made my bed, I'll die in it

-3-3-3-5-5-5-7-7-7-7-7-7---------------------------------|
-3-3-3-5-5-5-7-7-7-7-7-7---------------------------------|
-0-0-0-0-0-0-0-0-0-0-0-0-9-9-9-7-7-7-5-5-5-5-5-5---------|
-0-0-0-0-0-0-0-0-0-0-0-0-9-9-9-7-7-7-5-5-5-5-5-5---------|
-2-2-2-4-4-4-6-6-6-6-6-6-7-7-7-5-5-5-3-3-3-3-3-3---------|
-3-3-3-5-5-5-7-7-7-7-7-7---------------------------------|

Cute girls watch when I eat ether
Suck me under
Maybe forever, my friend

----------------------------------------------------|
----------------------------------------------------|
-------------------------9-9-9-7-7-7-5-5-5-5-5-5----|
-5-5-5-7-7-7-9-9-9-9-9-9-9-9-9-7-7-7-5-5-5-5-5-5----|
-5-5-5-7-7-7-9-9-9-9-9-9-7-7-7-5-5-5-3-3-3-3-3-3----|
-3-3-3-5-5-5-7-7-7-7-7-7----------------------------|

Now I've made my bed, I'll lie in it
I've made my bed, I'll die in it
I've made my bed, I'll cry in it
I've made my bed, I'll lie in it

G         A                    C               D
I am the girl you know, can't look you in the eye


MIKEY LINCE
Página 1 / 1

Letras e título
Acordes e artista

resetar configurações
OK