Cifra Club

Si Tu Quieres

Hombres G

Cifra: Principal (violão e guitarra)
tom: D
Intro/Solo
E|--5-7-5---------------------------| I
B|--------7-5----------------5-5/7--| I
G|------------7-4----4-7-4-7--------| I   (x2)
D|----------------------------------| I
A|----------------------------------| I
E|----------------------------------| I

E|----------------------------------------------------------| I
B|--7h10-7---5----5-5-5-7---------7h10-7---5----5-5-5-7-10--| I
G|---------7----7---------7-4------------7----7-------------| I
D|----------------------------------------------------------| I
A|----------------------------------------------------------| I
E|----------------------------------------------------------| I
Composição de David Summers
1 exibições
    • ½ Tom
    • A
    • Bb
    • B
    • C
    • Db
    • D
    • Eb
    • E
    • F
    • F#
    • G
    • Ab
  • Adicionar à lista

    0 comentários

    Ver todos os comentários

    Conseguiu tocar?

    0 Tocaram 0 Ainda não

    Grave um vídeo tocando Si Tu Quieres e nos envie!

    00:00 / 00:00
    Outros vídeos desta música
    Repetir Qualidade Automático
    Outros vídeos desta música
    00:00 / 00:00
    Automático

    Cifra Club Pro

    Aproveite o Cifra Club com benefícios exclusivos e sem anúncios
    Cifra Club Pro
    Aproveite o Cifra Club com benefícios exclusivos e sem anúncios
    OK