Cifra Club

All That You Have

Home Grown

Tab de baixo: Principal
By: Wasabi (*) 

Tune down half a step 

    = STRUM   / = SLIDE UP   \ = SLIDE DOWN   p = PULL OFF 
 

INTRO 
G|----------------------| 
D|----------------------| 
A|-3/10--8\7/8--10\8\7--| 
E|----------------------| 

CHORUS 
G|----------------------------| 
D|---2-5--0-2-----------5-3-2-| x4 
A|-3----------3----0-3--------| 
E|---------------1------------| 

VERSE 
G|---------------------------------------------------------------------| 
D|---0-2-3-5-3-2-0-----------5-3-2-0---0-2-3-5-3-2-0-----------5-3-2-0-| 
A|-3---------------3---0-2-3---------3---------------3---0-2-3---------| 
E|-------------------1---------------------------------1---------------| 

G|---------------------------------------------------------------| 
D|---0-2-3-5-3-2-0---0-2---------------------------------5-3-2-0-| 
A|-3---------------3-----5-3-2-0---0-2-3-5-3-2-0---0-2-3---------| 
E|-------------------------------3---------------1---------------| 

CHORUS x2 
VERSE 

BRIDGE 
G|---------------------------------------| 
D|---------------------------------------| 
A|-7>----5>--------------8>-10>\8>\7>\5>-| 
E|----5>----3>-3-1-0>-5>-----------------| 

CHORUS x4 

OUTRO 
G|----------------------------------| 
D|------------------10>-------------| 
A|-3-3/5/7--7/8/10---------13p12/15-| 
E|----------------------------------| 
00:00 / 00:00
Outros vídeos desta música
Repetir
Outros vídeos desta música
Composição de Adam Lohrbach
118 exibições

0 comentários

Ver todos os comentários

Entre para oCifra Club PRO

Tenha acesso a benefícios exclusivos no App e no Site

  • Chega de anúncios

  • Prioridade de compra em lançamentos

  • Mais recursos no app do Afinador

  • Atendimento Prioritário

  • Descontos nos produtos Cifra Club

  • Ajude a produzir mais conteúdo

00:00 / 00:00

Cifra Club Pro

Aproveite o Cifra Club com benefícios exclusivos e sem anúncios
Cifra Club Pro
Aproveite o Cifra Club com benefícios exclusivos e sem anúncios
OK