Cifra Club

Aprenda

What's My Scene

Hoodoo Gurus

Cifra: Principal (violão e guitarra)
Tom: G
[Intro]

D      E     G              
E|---2-0---2-0---2-0-2-0---0-|
B|---3-3---0-0---0-0-0-0-3-0-|
G|---2-2---1-1---0-0-0-0-0-0-|
D|-0-0-0---2-2---0-0-0-0-0-0-|
A|---------2-2---2-2-2-2-2-2-|
E|-------0-0-0-3-3-3-3-3-3-3-|

D
And another thing
                    E
I've been wondering lately
    G 
Oh, baby
                       D      Dsus4
Tell me where have you been? 
D 
Now the stage is set 
                   E
Where's my Juliet, baby? 
      G
Is it maybe 
                     D      Dsus4
My Midsummer Night's Dream? 

G         A    E
What's my scene? 
G         A    E
What's my scene? 
G         A    E
What's my scene? 
G
Tell me what's my 

    D      E   G                   D   E   G
E|------|---|-------------------|---|---|-----14-17-14-17-14----|
B|------|---|-8---7-10-7-10-7---|---|---|-8------------------15-|
G|-7----|-9-|-----------------9-|-7-|-9-|-----------------------|
D|------|---|-------------------|---|---|-----------------------|
A|------|---|-------------------|---|---|-----------------------|
E|------|---|-------------------|---|---|-----------------------|

Like a talent scout
I'm always checking out new blood
Oh, I'd do good
If you tell me your game
Playing Solitaire
Doesn't get me where you would
And, honey, you could
Play any rules that you name

G         A    E
What's my scene? 
G         A    E
What's my scene? 
G         A    E
What's my scene?
G
Tell me I gotta know

A 
They say, yeah, they say
G                    D
Making love, you can make it pay
A
They say, yeah, they say,
G                     E 
But we know there's a better way

[Solo]
                      D   E   G                  D
E|-----------------|---|---|------------------|----------------------|
B|-----------------|---|---|------------------|----------------------|
G|-----------------|---|---|-----12--12---10b-|------7------7-9p-7---|
D|-4-5-4-5-7-5-4-5-|-7-|-9-|-12--12--12-------|-7h-9---7h-9--------9-|
A|-----------------|---|---|-----10--10-------|----------------------|
E|-----------------|---|---|------------------|----------------------|
              Any day

    E                 G                  D                E
E|-----------------|------------------|----------------|---------------|
B|-----------------|------------------|---8-7---10-8-7-|-7-10-8-7-10-8-|
G|-------9-------9-|-12~---12-12-11-9-|-7-----9--------|---------------|
D|-9h-12---9h-12---|-12~--------------|----------------|---------------|
A|-----------------|-10~--------------|----------------|---------------|
E|-----------------|------------------|----------------|---------------|

    G                                    D       E
E|------------------------------------|-------|---------|
B|-8p-7p-5--8p-7p-5----7-8-10---15-14-|-15----|-15b-----|
G|------------------7-----------------|----14-|-----13--|
D|------------------------------------|-------|---------|

    G                                        D
E|-------------------------------------19-|-17~-|
B|-15--15--14----15--17--19--19--17-------|-----|
G|------------14--------------------19----|-----|
D|----------------------------------------|-----|

And another thing
I've been wondering lately
Am I crazy
To believe in ideals?
I'm a betting man
But it's getting damn lonely
Oh honey if only
I was sure what I feel

G         A    E
What's my scene? 
G         A    E
What's my scene? 
G         A    E
What's my scene? 
G         A    E
What's my scene? (I'm dying to know)

            D  E   G                         D   E   G
E|-------|------|-------------------------|-14b---|-14-17p-15----------14-|
B|---7-8-|-10~--|-12p-10------------------|-------|-----------17-15-17----|
G|-9-----|------|--------12-11h-12p-11----|-------|-----------------------|
D|-------|------|----------------------12-|-------|-----------------------|

                           D  E   G                                D
E|-19-17-15----15-17-15-|-14~--|--------14--14p-12--------------|----|
B|----------19----------|------|-----15------------15p-12-15-12-|----|
G|----------------------|------|--14----------------------------|-14-|
D|----------------------|------|--------------------------------|----|

    E          G           D
E|----------|------1------1-|-2--2--0--0--0h-2---|
B|---12h-15-|-15---0------0-|-3--3--3--3--3------|
G|----------|------0------0-|-2--2--2--2--2------|
D|----------|------0------0-|-0--0--0--0--0------|
A|----------|------2------2-|--------------------|
E|----------|------3------3-|--------------------|
                    What's my..?
Composição de David Faulkner
Colaboração e revisão:
  • Alexandre Suêvo
6.349 exibições
    • ½ Tom
    • A
    • Bb
    • B
    • C
    • Db
    • D
    • Eb
    • E
    • F
    • F#
    • G
    • Ab
  • Adicionar à lista

    0 comentários

    Mostrar mais comentários

    Conseguiu tocar?

    0 Tocaram 0 Ainda não

    Grave um vídeo tocando What's My Scene e mande pra gente!

    00:00 / 00:00
    outros vídeos desta música
    repetir qualidade Automático
    Outros vídeos desta música
    00:00 / 00:00
    Automático

    Cifra Club Pro

    Aproveite o Cifra Club com benefícios exclusivos e sem anúncios
    7 dias grátis
    Cifra Club Pro
    Aproveite o Cifra Club com benefícios exclusivos e sem anúncios
    7 dias grátis
    OK