Cifra Club

Pau No Cú da Globo

Horda Punk

Cifra: Principal (violão e guitarra)
Tom: C
introdução:

E|----------------------------------------------------------|
B|----------------------------------------------------------|
G|----------------------------------------------------------|
D|7-5-7--8-7-5-7-5-7--8-7-5-7-5-7--8-7-5-7-5-7--8-7-5--3----|
A|7-5-7--8-7-5-7-5-7--8-7-5-7-5-7--8-7-5-7-5-7--8-7-5--3----|
E|5-3-5--6-5-3-5-3-5--6-5-3-5-3-5--6-5-3-5-3-5--6-5-3--1----|

riff1 plantão globo:

E|-----------------------------|
B|-----------------------------|
G|-----------------------------|
D|3-3-3-3-3-3-3-3-3-3-3-3-3-3-3|
A|3-3-3-3-3-3-3-3-3-3-3-3-3-3-3|
E|1-1-1-1-1-1-1-1-1-1-1-1-1-1-1|

E|-------------------------| |-----------------------------|
B|-------------------------| |-------------------------5---|
G|-------------------------| |-5-4-5--4---5--4-5-4-7-4-4---|
D|-------------------------| |-----------------------------|
A|-3-2-3--2---3--2-3-2-----| |-----------------------------|
E|----------------------5--| |-----------------------------|

entrado do baixo:

G|---------------------------------------------|
D|---------------------------------------------|
A|---------------------------------------------|
E|5-3-5--6-5-3-5-3-5--6-5-3-5-3-5--6-5-3-5-3-5-|

riff2:

E|-----------------------------|
B|-----------------------------|
G|-----------------------------|
D|-7-5-8-7-7-7---7-5-8-7-7-7---|  2(x)
A|-7-5-8-7-7-7---7-5-8-7-7-7---|
E|-5-3-6-5-5-5-0-5-3-6-5-5-5-0-|

E|---------------|
B|---------------|
G|---------------|
D|7-5-7--8-7-5-7-|  2(x)
A|7-5-7--8-7-5-7-|
E|5-3-5--6-5-3-5-|

E|--------------------------------------------------------------------|
B|--------------------------------------------------------------------|
G|--------------------------------------------------------------------|
D|7-5-4---8-7-5-7--7-5-4---8-7-5-7--7-5-4---8-7-5-7--7-5-4---8-7-5-7--|
A|7-5-4---8-7-5-7--7-5-4---8-7-5-7--7-5-4---8-7-5-7--7-5-4---8-7-5-7--|
E|5-3-5---6-5-3-5--5-3-5---6-5-3-5--5-3-5---6-5-3-5--5-3-5---6-5-3-5--|

riff2:

E|-----------------------------|
B|-----------------------------|
G|-----------------------------|
D|-7-5-8-7-7-7---7-5-8-7-7-7---|  2(x)
A|-7-5-8-7-7-7---7-5-8-7-7-7---|
E|-5-3-6-5-5-5-0-5-3-6-5-5-5-0-|

solo:

E|-----------------------------------------------------------------------------|
B|-10-8-10--11-10-8--10-8-10--11-10-8--10-8-10--11-10-8--10-8-10--11-10-8--10--|
G|-----------------------------------------------------------------------------|
D|-----------------------------------------------------------------------------|
A|-----------------------------------------------------------------------------|
E|-----------------------------------------------------------------------------|

riff2:

E|-----------------------------|
B|-----------------------------|
G|-----------------------------|
D|-7-5-8-7-7-7---7-5-8-7-7-7---|  2(x)
A|-7-5-8-7-7-7---7-5-8-7-7-7---|
E|-5-3-6-5-5-5-0-5-3-6-5-5-5-0-|

E|--------------|
B|--------------|
G|--------------|
D|-7------------|
A|-7------------|
E|-5------------|
exibições 347
Acordes para:
    Composição: Bob Oliveira / Dycki Bertoli / Jean Houly / Neto Falcao Colaboração e revisão:
    • Guilherme Bertoli

    0 comentários

    mostrar mais comentários

    Conseguiu tocar?

    0 tocaram 0 ainda não

    Grave um vídeo tocando Pau No Cú da Globo e mande pra gente!

    00:00 / 00:00
    outros vídeos desta música
    repetir qualidade Automático
    Outros vídeos desta música
    00:00 / 00:00
    Automático
    OK