Cifra Club

Segredo

Hori

Tab de baixo: Principal
exibições 836
(intro) (sem baixo)

(verso 2x)
|---------------------------------------------------------|
|------------------868----868-----424----424----343----343|
|---424----424--66-----66------22-----22-----44-----44----|
|22-----22------------------------------------------------|

(pré-refrão)
|----------------------------------|
|----------------------------------|
|2~-2~-2~-/141414141414------------|
|----------------------------------|

(refrão 2x) (só toca o final na 2ª)
|----------------------------------------------------|--------|
|----------------------------------------------------|--------|
|----------2-4-6-666666666-6-4-2-22222222-4444444444-|22222---|
|222222222-------------------------------------------|------2~|

(verso 2)
|------------------------------------------------------------|
|------------------868----868-----424----424----343---34643--|
|---424----424--66-----66------22-----22-----44-----4-------4|
|22-----22---------------------------------------------------|

|---------------------------------------------------------|
|------------------868----868-----424----424----343----343|
|---424----424--66-----66------22-----22-----44-----44----|
|22-----22------------------------------------------------|

(pré-refrão)
|----------------------------------|
|----------------------------------|
|2~-2~-2~-/141414141414------------|
|----------------------------------|

(refrão 2x) (só toca o final na 2ª)
|----------------------------------------------------|--------|
|----------------------------------------------------|--------|
|----------2-4-6-666666666-6-4-2-22222222-4444444444-|22222---|
|222222222-------------------------------------------|------2~|

(ponte)
|--------------------------------------------|
|--------------------------------------------|
|-----------6666666666-222222222-4444444444--|
|2222222222----------------------------------|

|----------------------------------------------------------|
|----------------------------------------------------------|
|-----------6666666666-22222-22-33-44-444444-2222222-4~----|
|2222222222------------------------------------------------|

(refrão 2x) (só toca o final na 2ª)
|----------------------------------------------------|--------|
|----------------------------------------------------|--------|
|----------2-4-6-666666666-6-4-2-22222222-4444444444-|22222---|
|222222222-------------------------------------------|------2~|
Composição: Fabio Maciel / Max Klein / Renan AugustoColaboração e revisão:
  • Sid Filho

0 comentários

    mostrar mais comentários

    Conseguiu tocar?

    0tocaram0ainda não

    Grave um vídeo tocando Segredo e mande pra gente!

    00:00 / 00:00
    outros vídeos desta música
    repetirqualidadeautomática
    Outro vídeos desta música
      00:00 / 00:00
      automática
      OK