Cifra Club

Coração na Cama

Hugo e Guilherme

Cifra: Principal (violão e guitarra)
tom: Ab (forma dos acordes no tom de G) Capotraste na 1ª casa
[Intro] D  Em  C  G

[Solo]
 
E|------------------------------------------|
B|------------~-----------------------------|
G|--6/8-8-8-8------8------------------------|
D|------------8-8---------------------------|
A|------------------------------------------|
E|------------------------------------------|

E|------------------------------------------|
B|------------------------------------------|
G|--8-8-8-8/10-10-10-------------------~----|
D|-------------------10---------------------|
A|------------------------------------------|
E|------------------------------------------|

E|------------------------------------------|
B|--7/9---9--9--9--8-8--6-6--4-4--2-1-------|
G|--8/10-10-10-10--8-8--6-6--5-5--3-1-------|
D|------------------------------------------|
A|------------------------------------------|
E|------------------------------------------|

E|-------4-3-1------------------------------|
B|------------------------------------------|
G|--3/5--------------------------------~----|
D|------------------------------------------|
A|------------------------------------------|
E|------------------------------------------|

[Primeira Parte]

 Em7
Na porta de uma budega
           G
Largado daquele jeitão
            D
Cadeira amarela, camisa no ombro
             Am
Cigarro na orelha e copo na mão

    Em7
Não olhe de canto de olho
         G
Julgando esse cidadão
            D
Quem nunca perdeu o amor e chorou
         Am
Que me atire o primeiro litrão

[Refrão]

Em7     D         G
Onde está o meu amor
         D
Tá pendurada na boca
            Em7
De outro caboco
                 C
Tá amando outro corpo
                         G
Do jeitinho que a gente fez

         D
Essa bandida rouba
            Em7
Coração na cama
                    C
Geme alto e diz que ama
                      G
Depois te esquece de vez

[Solo] D  Em  C  G
       D  Em  C  G

E|------------------------------------------|
B|------------~-----------------------------|
G|--6/8-8-8-8------8------------------------|
D|------------8-8---------------------------|
A|------------------------------------------|
E|------------------------------------------|

E|------------------------------------------|
B|------------------------------------------|
G|--8-8-8-8/10-10-10-------------------~----|
D|-------------------10---------------------|
A|------------------------------------------|
E|------------------------------------------|

E|------------------------------------------|
B|--7/9---9--9--9--8-8--6-6--4-4--2-1-------|
G|--8/10-10-10-10--8-8--6-6--5-5--3-1-------|
D|------------------------------------------|
A|------------------------------------------|
E|------------------------------------------|

E|------------------------------------------|
B|------------~-----------------------------|
G|--6/8-8-8-8------8------------------------|
D|------------8-8---------------------------|
A|------------------------------------------|
E|------------------------------------------|

E|------------------------------------------|
B|------------------------------------------|
G|--8-8-8-8/10-10-10-------------------~----|
D|-------------------10---------------------|
A|------------------------------------------|
E|------------------------------------------|

E|------------------------------------------|
B|--7/9---9--9--9--8-8--6-6--4-4--2-1-------|
G|--8/10-10-10-10--8-8--6-6--5-5--3-1-------|
D|------------------------------------------|
A|------------------------------------------|
E|------------------------------------------|

E|-------4-3-1------------------------------|
B|------------------------------------------|
G|--3/5--------------------------------~----|
D|------------------------------------------|
A|------------------------------------------|
E|------------------------------------------|

[Primeira Parte]

 Em7
Na porta de uma budega
           G
Largado daquele jeitão
            D
Cadeira amarela, camisa no ombro
             Am
Cigarro na orelha e copo na mão

    Em7
Não olhe de canto de olho
         G
Julgando esse cidadão
            D
Quem nunca perdeu o amor e chorou
         Am
Que me atire o primeiro litrão

[Refrão]

Em7     D         G
Onde está o meu amor
         D
Tá pendurada na boca
            Em7
De outro caboco
                 C
Tá amando outro corpo
                         G
Do jeitinho que a gente fez

         D
Essa bandida rouba
            Em7
Coração na cama
                    C
Geme alto e diz que ama
                      G
Depois te esquece de vez

[Final] D  Em  C  D  G
00:00 / 00:00
Outros vídeos desta música
Repetir
Outros vídeos desta música
Composição de Alex Alves / Cleber Souza E Silva / Valdinei José de Souza
Colaboração e revisão:
386.671 exibições
  • Simplificar cifra
    • ½ Tom
    • A
    • Bb
    • B
    • C
    • Db
    • D
    • Eb
    • E
    • F
    • F#
    • G
    • Ab
  • Adicionar à lista

    0 comentários

    Ver todos os comentários

    Conseguiu tocar?

    36 Tocaram 5 Ainda não

    Grave um vídeo tocando Coração na Cama e nos envie!

    Entre para oCifra Club PRO

    Tenha acesso a benefícios exclusivos no App e no Site

    • Chega de anúncios

    • Prioridade de compra em lançamentos

    • Mais recursos no app do Afinador

    • Atendimento Prioritário

    • Descontos nos produtos Cifra Club

    • Ajude a produzir mais conteúdo

    00:00 / 00:00

    Cifra Club Pro

    Aproveite o Cifra Club com benefícios exclusivos e sem anúncios
    Cifra Club Pro
    Aproveite o Cifra Club com benefícios exclusivos e sem anúncios
    OK