Cifra Club

Aprenda

Namorada Reserva

Hugo e Guilherme

Cifra: Principal (violão e guitarra)
Tom: G
[Intro] C  D  Em

[Solo]
 
E|----------------------------------------------------|
B|-------8/7-7/5--------------------------------------|
G|----------------------------------------------------|
D|--7/9-----------------------------------------------|
A|----------------------------------------------------|
E|----------------------------------------------------|

E|----------------------------------------------------|
B|--------8-8-8/7-7/5-5/3-3/5-3/5---------------------|
G|----------------------------------------------------|
D|--5/9-9-9-9/7-7/5-5/4-4/5-4/5-----------------------|
A|----------------------------------------------------|
E|----------------------------------------------------|

E|------------12--------------------------------------|
B|------------12--------------------------------------|
G|------------12--------------------------------------|
D|----------------------------------------------------|
A|----------------------------------------------------|
E|----------------------------------------------------|

[Primeira Parte]

   C            D                 Em
Na noite anterior, outra vez me negou amor

Foi você quem negou amor
   C              D
De costas, cê virou
               Em
Na vontade, cê me deixou

Outra vez me negou amor

[Segunda Parte]

C               D
Procurou e achou
                     Em
Me flagrou fazendo errado

O que pra mim tá certo
         C                       D
Lembra aí quando a gente fez amor, diz então
          Em
Que eu ajoelho e te peço perdão

[Pré-Refrão]

        C
Lembrou não, né?
              D
Então não estressa
      C                     B7
E não xinga quem me dá amor
                     Em
Toda vez que você me nega

E|----------------------------------------------------|
B|----------------------------------------------------|
G|----------------------------------------------------|
D|----------------------------------------------------|
A|--2-0-2-0-2-0---------------------------------------|
E|-------------3-0------------------------------------|

[Refrão]

        C            D
Amante não, respeita ela
                  Em
Minha namorada reserva, ai, ai, ai
        C            D
Amante não, respeita ela
                  Em
Minha namorada reserva, ai, ai, ai
                        C             D
Ai de mim, se não fosse ela, ai, ai, ai
                  Em
Minha namorada reserva, ai, ai, ai

( C D Em  )

E|----------------------------------------------------|
B|-------8/7-7/5--------------------------------------|
G|----------------------------------------------------|
D|------------------7/9-------------------------------|
A|----------------------------------------------------|
E|----------------------------------------------------|

E|----------------------------------------------------|
B|-------8-8-8/7-7/5-5/3-3/5-3/5----------------------|
G|----------------------------------------------------|
D|----5/9-9-9-9/7-7/5-5/4-4/5-4/5---------------------|
A|----------------------------------------------------|
E|----------------------------------------------------|

E|----------------------------------------------------|
B|-------8/7--8---------------------------------------|
G|-------------9--------------------------------------|
D|----------------------------------------------------|
A|----------------------------------------------------|
E|----------------------------------------------------|

E|----------------------------------------------------|
B|-------8/7-7/5--------------------------------------|
G|----------------------------------------------------|
D|--7/9-----------------------------------------------|
A|----------------------------------------------------|
E|----------------------------------------------------|

E|----------------------------------------------------|
B|--------8-8-8/7-7/5-5/3-3/5-3/5---------------------|
G|----------------------------------------------------|
D|--5/9-9-9-9/7-7/5-5/4-4/5-4/5-----------------------|
A|----------------------------------------------------|
E|----------------------------------------------------|

E|----------------------------------------------------|
B|-------8/7-7/5--------------------------------------|
G|----------------------------------------------------|
D|--7/9-----------------------------------------------|
A|----------------------------------------------------|
E|----------------------------------------------------|

E|----------------------------------------------------|
B|----------------------------------------------------|
G|--2/4-2-0h2p0---------------------------------------|
D|--------------4-2-----------------------------------|
A|----------------------------------------------------|
E|----------------------------------------------------|

[Segunda Parte]

C               D
Procurou e achou
                     Em
Me flagrou fazendo errado

O que pra mim tá certo
         C                       D
Lembra aí quando a gente fez amor, diz então
          Em
Que eu ajoelho e te peço perdão

[Pré-Refrão]

        C
Lembrou não, né?
              D
Então não estressa
      C                     B7
E não xinga quem me dá amor
                     Em
Toda vez que você me nega

E|----------------------------------------------------|
B|----------------------------------------------------|
G|----------------------------------------------------|
D|----------------------------------------------------|
A|--2-0-2-0-2-0---------------------------------------|
E|-------------3-0------------------------------------|

[Refrão]

        C            D
Amante não, respeita ela
                  Em
Minha namorada reserva, ai, ai, ai
        C            D
Amante não, respeita ela
                  Em
Minha namorada reserva, ai, ai, ai
                        C             D
Ai de mim, se não fosse ela, ai, ai, ai
                  Em
Minha namorada reserva, ai, ai, ai


 C             D
Ai de mim, se não fosse ela, ai, ai, ai
                  Em
Minha namorada reserva, ai, ai, ai
Colaboração e revisão:
47.682 exibições
    • ½ Tom
    • A
    • Bb
    • B
    • C
    • Db
    • D
    • Eb
    • E
    • F
    • F#
    • G
    • Ab
  • Adicionar à lista

    0 comentários

    Mostrar mais comentários

    Conseguiu tocar?

    14 Tocaram 3 Ainda não

    Grave um vídeo tocando Namorada Reserva e mande pra gente!

    00:00 / 00:00
    outros vídeos desta música
    repetir qualidade Automático
    Outros vídeos desta música
    00:00 / 00:00
    Automático

    Cifra Club Pro

    Aproveite o Cifra Club com benefícios exclusivos e sem anúncios
    7 dias grátis
    Cifra Club Pro
    Aproveite o Cifra Club com benefícios exclusivos e sem anúncios
    7 dias grátis
    OK