Cifra Club

Partiu

Humberto Gessinger

Tab de baixo: Principal
[Intro]

  ( 2 x)       ( 2x )         (2 x)         (2 X )            
G|----------9-|------------9-|-----11----14|-----12----14-|
D|---9-12--9--|---11-12--11--|---12----12--|---12----12---|
A|-10----10---|-12-----12----|-14----14----|-14----14-----|
E|------------|--------------|-------------|--------------|

G|-16--15--|
D|-16--16--|
A|---------|
E|---------|

[Parte 1]

G|-------------|-------|
D|-------------|-------|
A|-2---0-2-0-2-|-0-2-0-|
E|-------------|-------|

G|-----------|-----------|
D|-----------|-----------|
A|--2----5-5-|--0----1---|
E|-3-3----5--|-2---22--2-|

G|-------------|-------|
D|-------------|-------|
A|-2---0-2-0-2-|-0-2-0-|
E|-------------|-------|

G|-----------|-----------|
D|-----------|-----------|
A|--2----5-5-|--0----1---|
E|-3--3---5--|-2---22--2-|

G|-------------|-------|
D|-------------|-------|
A|-2---0-2-0-2-|-0-2-0-|
E|-------------|-------|

G|----------|--------------|-----------|
D|----------|--------------|--7---8----|
A|--2---5-5-|--2--2-3--5-5-|-9--99--9\-|
E|-3-3---5--|-3-3--2----5--|-----------|

G|----------------|-----------|
D|----------------|-----------|
A|--2---5-5---2-2-|--0----1---|
E|-3-3---5-----2--|-2---22--2-|

[Refrão]

G|-----------------|-----------------|-----------------|
D|-----------------|-----------------|-----------------|
A|-----------------|-----------------|-----------------|
E|-3-3-3-3-3-3-3-3-|-5-5-5-5-5-5-5-5-|-7-7-7-7-7-7-7-7-|

G|-----------------|-4--3----4--3-|
D|-----------------|-4--4----4--4-|
A|-----------------|--------------|
E|-3-3-3-3-3-3-3-3-|-2--2----2--2-|

G|---------|---------|
D|---------|---------|
A|-2-------|-2-------|
E|---5-3-2-|---5-3-2-|

[Parte 2]

G|-----------|-----------|
D|-----------|-----------|
A|--2----5-5-|--0----1---|
E|-3-3----5--|-2---22--2-|

G|-------------|-------|
D|-------------|-------|
A|-2---0-2-0-2-|-0-2-0-|
E|-------------|-------|

G|--------------------|
D|-----------7---8----|
A|--2---5-5/9--99--9\-|
E|-3-3---5------------|

[Refrão]

G|-----------------|-----------------|-----------------|
D|-----------------|-----------------|-----------------|
A|-----------------|-----------------|-----------------|
E|-3-3-3-3-3-3-3-3-|-5-5-5-5-5-5-5-5-|-7-7-7-7-7-7-7-7-|

G|-----------------|-4--3----4--3-|
D|-----------------|-4--4----4--4-|
A|-----------------|--------------|
E|-3-3-3-3-3-3-3-3-|-2--2----2--2-|

[Solo Baixo]

G|----16-14-16--14-16--16-14-|
D|----16-14-16--14-16--16-14-|
A|-14------------------------|
E|---------------------------|

G|----16-14-16---14-16-16--|-14--14-----|
D|----16-14-16---14-16-16--|---16--16---|
A|-14----------------------|---------14-|
E|-------------------------|------------|

G|----16-14-16---14-16-16--|-14--14-----|
D|----16-14-16---14-16-16--|---16--16---|
A|-14----------------------|---------14-|
E|-------------------------|------------|

G|-16-14-16---14-16\-|
D|-16-14-16---14-16\-|
A|-------------------|
E|-------------------|

[[Refrão]

G|-----------------|-----------------|-----------------|
D|-----------------|-----------------|-----------------|
A|-----------------|-----------------|-----------------|
E|-3-3-3-3-3-3-3-3-|-5-5-5-5-5-5-5-5-|-7-7-7-7-7-7-7-7-|

G|-----------------|-4--3-|
D|-----------------|-4--4-|
A|-----------------|------|
E|-3-3-3-3-3-3-3-3-|-2--2-|

[Final]
  ( 2 x)       ( 2x )         (2 x)         (2 X )            
G|----------9-|------------9-|-----11----14|-----12----14-|
D|---9-12--9--|---11-12--11--|---12----12--|---12----12---|
A|-10----10---|-12-----12----|-14----14----|-14----14-----|
E|------------|--------------|-------------|--------------|

G|---------|
D|---------|
A|--2-0-2--|
E|---------|
Composição de Humberto Gessinger
Colaboração e revisão:
  • marcos lima
72 exibições

0 comentários

Ver todos os comentários
00:00 / 00:00
Outros vídeos desta música
Repetir Qualidade Automático
Outros vídeos desta música
00:00 / 00:00
Automático

Cifra Club Pro

Aproveite o Cifra Club com benefícios exclusivos e sem anúncios
Cifra Club Pro
Aproveite o Cifra Club com benefícios exclusivos e sem anúncios
OK