Cifra Club

Deixa o Tempo Ver

Humberto e Ronaldo

Cifra: Principal
exibições 153.276
Tom: E
Intro:
        E            B9                A9
E|-5/7-7-7-7-5-4-2/5-5-5-5-5-4-2-2-4-0-9--7-5-4---|
B|-7/9-9-9-9-7-5-4/7-7-7-7-7-5-4-4-5-0-10-9-7-5---|
G|------------------------------------------------|
D|------------------------------------------------|
A|------------------------------------------------|
E|------------------------------------------------|
        E            B9                A9
E|-5/7-7-7-7-5-4-2/5-5-5-5-5-4-2-2-4-0-9--7-5-4---|
B|-7/9-9-9-9-7-5-4/7-7-7-7-7-5-4-4-5-0-10-9-7-5---|
G|------------------------------------------------|
D|------------------------------------------------|
A|------------------------------------------------|
E|------------------------------------------------|

  E                 B9
Foi tudo como eu sonhei
           C#m               A9
Ter você nos meus braços, pequena

Te desejei
  E                B9         A9
Eu vi crescer um amor de cinema

E                  B
E o riso solto no ar
         C#m                  A9
De quem ama, se entrega e aceita o que viver
  E                  B9                A9
Eu nunca mais vou deixar, minha pequena

F#m              A9
Beijo a tua boca doce como o mel
F#m              A9
Sentir teu carinho é me encontrar no céu
F#m              A9                B9
Usa teus encantos pra me conquistar

E                      B9              C#m
E deixe o tempo ver, ver no que vai dar
                 A9                 E
O nosso amor é puro, sempre vai durar
                   B9                       F#m
Não penso em te perder, nem penso em te deixar
                      A9
Tá frio, o céu tão claro e eu a te amar

E                     B9             C#m
E deixe o tempo ver, ver no que vai dar
                 A9                  E
O nosso amor é puro, sempre vai durar
                    B9                      F#m
Não penso em te perder, nem penso em te deixar
              A9
A chama da paixão está em seu olhar

        E            B9                A9
E|-5/7-7-7-7-5-4-2/5-5-5-5-5-4-2-2-4-0-9--7-5-4---|
B|-7/9-9-9-9-7-5-4/7-7-7-7-7-5-4-4-5-0-10-9-7-5---|
G|------------------------------------------------|
D|------------------------------------------------|
A|------------------------------------------------|
E|------------------------------------------------|
        E            B9                A9
E|-5/7-7-7-7-5-4-2/5-5-5-5-5-4-2-2-4-0-9--7-5-4---|
B|-7/9-9-9-9-7-5-4/7-7-7-7-7-5-4-4-5-0-10-9-7-5---|
G|------------------------------------------------|
D|------------------------------------------------|
A|------------------------------------------------|
E|------------------------------------------------|

F#m              A9
Beijo a tua boca doce como o mel
F#m              A9
Sentir teu carinho é me encontrar no céu
F#m              A9                B9
Usa teus encantos pra me conquistar

E                      B9              C#m
E deixe o tempo ver, ver no que vai dar
                 A9                 E
O nosso amor é puro, sempre vai durar
                   B9                       F#m
Não penso em te perder, nem penso em te deixar
                      A9
Tá frio, o céu tão claro e eu a te amar



E                     B9             C#m
E deixe o tempo ver, ver no que vai dar
                 A9                  E
O nosso amor é puro, sempre vai durar
                    B9                      F#m
Não penso em te perder, nem penso em te deixar
              A9                   E
A chama da paixão está em seu olhar

(Repete Refrão)
Acordes para:

    0 comentários

      mostrar mais comentários

      Conseguiu tocar?

      17tocaram0ainda não

      Grave um vídeo tocando Deixa o Tempo Ver e mande pra gente!

      00:00 / 00:00
      outros vídeos desta música
      repetirqualidadeautomática
      Outro vídeos desta música
        00:00 / 00:00
        automática
        OK