Cifra Club

Rascunho

Humberto e Ronaldo

Cifra: Principal
exibições 18.766
Tom: D
Intro 2x: Bm  G  D  A
Solo:
E|--2-2-2-2--2-2----------------------------------|
B|---------------3-3--5-5-5-5--2-2--2-2--3-2--0-0-|
G|------------------------------------------------|
D|------------------------------------------------|
A|------------------------------------------------|
E|------------------------------------------------|

E|-2-2-2-2--2-2-----------------------------------|
B|--------------3-3--5-3-2-0--0-0-2---------------|
G|------------------------------------------------|
D|------------------------------------------------|
A|------------------------------------------------|
E|------------------------------------------------|


Bm
Olhos rasos d'agua
A
Não vale pensar em quem te engana
Bm
Coração em chamas
A
Sofrendo de amor por quem te ama

 Bm                              G
To passando aqui momentos de aflição
                                    D
Meus olhos refletem a dor de uma paixão
                         A
Porque que tem que ser assim

 Bm                                   G
Entreguei minha vida inteira em suas mãos
                              D
Você machucou feriu meu coração
                         A
Nem mesmo se lembrou de mim

Bm                                 G
Amei um coração que não aprendeu amar
  D            A
É dificil acreditar
Bm                          G
Ai fiz um rascunho pra você sonhar
  D                   A
Um pedido pra você me amar.
Acordes para:
    Colaboração e revisão:

    0 comentários

      mostrar mais comentários

      Conseguiu tocar?

      5tocaram0ainda não

      Grave um vídeo tocando Rascunho e mande pra gente!

      00:00 / 00:00
      outros vídeos desta música
      repetirqualidadeautomática
      Outro vídeos desta música
        00:00 / 00:00
        automática
        OK