Cifra Club

Pra Ter Seu Amor / Marca Evidente (Pot-pourri)

Icaro e Gilmar

Cifra: Principal (violão e guitarra)
tom: G
[Intro] G  D/F#  Bm  
        C  G  D/F#  
        Em  D  G
        C  G  D/F#
        C  D  C  G  D/F#

[Tab - Intro]

E|-3-2-----0-0---7h8-10---10--7--10--7-------|
B|-----3-3-----------------------------------|
G|-------------------------------------------|
D|-------------------------------------------|
A|-------------------------------------------|
E|-------------------------------------------|

E|-2-2-3-5-3-2-2h3-3-------------------------|
B|-------------------------------------------|
G|-------------------------------------------|
D|-------------------------------------------|
A|-------------------------------------------|
E|-------------------------------------------|

E|-3-2-----0-0---7h8-10---10--7--5--2--------|
B|-----3-3-----------------------------------|
G|-------------------------------------------|
D|-------------------------------------------|
A|-------------------------------------------|
E|-------------------------------------------|

E|-7h8-7-5-3~-----2~------------------------|
B|------------0h3---------------------------|
G|------------------------------------------|
D|------------------------------------------|
A|------------------------------------------|
E|------------------------------------------|

G
Agora já não tem mais jeito
         D/F#
Amar até seus defeitos não dá pra fugir
   Em                        C
Se eu tenho um milhão de motivos

Pra te conquistar

Eu não vou desistir
 G
Você é frio, é calor
       D/F#
É febre de amor, saudade de paixão
 C            C  D Am  G
Eu sigo sempre rumo ao seu coração

 G   Am    Bm  C
Pra ter o seu amor
  G
Eu viajei pelo seu mundo
           D/F#
Me vi com seus olhos
          D/F# D Em9
Descobri quem sou, ái ái ái

Em9   D   Bm  C
Pra ter o seu amor
 G             D/F#
Te pedi pra Deus de presente
          C  D
E pra me ver contente
        G
Ele te inventou

( Em  G  D  A )
( Em  G  D  A  D )

Em              G                D
Sentimento dividido no tempo perdido
Buscando te ter
Em                G                   D
Sinto no ar que respiro seu cheiro prefiro
A            D
Não lembrar você

Em                G                   D
Ficou marca evidente que vive presente

No meu coração
Em                G                   D
Por caminho diferente o amor entre a gente
A          D
Não teve razão

Em                      G
Mas já chega assim não dá
D
Desculpe amor vou te deixar
Em                   G
Sei que vai me entender
D           A           D
Adeus, foi bom te conhecer

[Refrão]

Em                   G
Vou dar paz pro coração
           D
Nessa solidão ta difícil viver
Em               G
Vou sumir da sua vida
         D       A            D
A única Saída é ter que esquecer

Em                    G
Vou dar paz pro coração
           D
Nessa solidão ta difícil viver
Em               G
Vou sumir da sua vida
         D       A            D
A única Saída é ter que esquecer
Em         G
Vocêêêêêêêêêêê
D
Vocêêêêêêêêêêê

[Final] Em  G  D  A 
        Em  G  D  A  D
00:00 / 00:00
Outros vídeos desta música
Repetir
Outros vídeos desta música
Compositor não encontrado.
Colaboração e revisão:
  • Pietro Henrique"
  • pedro André
1.699 exibições
    • ½ Tom
    • A
    • Bb
    • B
    • C
    • Db
    • D
    • Eb
    • E
    • F
    • F#
    • G
    • Ab
  • Adicionar à lista

    0 comentários

    Ver todos os comentários

    Conseguiu tocar?

    1 Tocaram 0 Ainda não

    Grave um vídeo tocando Pra Ter Seu Amor / Marca Evidente (Pot-pourri) e nos envie!

    00:00 / 00:00

    Cifra Club Pro

    Aproveite o Cifra Club com benefícios exclusivos e sem anúncios
    Cifra Club Pro
    Aproveite o Cifra Club com benefícios exclusivos e sem anúncios
    OK