Cifra Club

Aprenda

Birth Of The Wicked

Iced Earth

Tab de baixo: Principal
F#||------------------------|------------------------|------------------------|
C#||------------------------|------------------------|------------------------|
G#||--5--5-5-5--5------5----|--6--6-6-6--6------6----|--8--8-8-8--8------8----|
D#||------------------------|------------------------|------------------------|
                                                                           
------------------------|------------------------|------------------------|
------------------------|------------------------|------------------------|
--6--6-6-6--6------6----|--5--5-5-5--5------5----|--6--6-6-6--6------6----|
------------------------|------------------------|------------------------|
                                                                             
------------------------|------------------------|--------------------------|
------------------------|------------------------|--------------------------|
--8--8-8-8--8------8----|--6--6-6-6--6------6----|--5--5-5-5--5--5--5--5----|
------------------------|------------------------|--------------------------|
                                                      
--------------------------|--------------------------|
--------------------------|--------------------------|
--6--6-6-6--6--6--6--6----|--8--8-8-8--8--8--8--8----|
--------------------------|--------------------------|
                                                 
--------------------------|--------------------------|
--------------------------|--------------------------|
--6--6-6-6--6--6--6--6----|--5--5-5-5--5--5--5--5----|
--------------------------|--------------------------|
                                              
--------------------------|--------------------------|
--------------------------|--------------------------|
--6--6-6-6--6--6--6--6----|--8--8-8-8--8--8--8--8----|
--------------------------|--------------------------|
                                                   
--------------------------|-----------------------------|
--------------------------|-----------------------------|
--6--6-6-6--6--6--6--6----|--5--5-5-5--5--5-5-5--5--5-5-|
--------------------------|-----------------------------|
                                                          
---------------------------|-----------------------------|
---------------------------|-----------------------------|
--5--5--5-5-5--5--6--5-----|--5--5-5-5--5--5-5-5--5--5-5-|
------------------------6--|-----------------------------|
                                                          
---------------------------|-----------------------------|
---------------------------|-----------------------------|
--5--5--5-5-5--5--6--5-----|--5--5-5-5--5--5-5-5--5--5-5-|
------------------------6--|-----------------------------|
                                                   
---------------------------|-----------------------------|
---------------------------|-----------------------------|
--5--5--5-5-5--5--6--5-----|--5--5-5-5--5--5-5-5--5--5-5-|
------------------------6--|-----------------------------|
                                                                      
---------------------------|------------------------|------------------------|
---------------------------|------------------------|------------------------|
--5--5--5-5-5--5--6--5-----|--3--3-3-3--3------3----|--6--6-6-6--6------6----|
------------------------6--|------------------------|------------------------|
                                                    
-----------------------------|---------------------------|
-----------------------------|---------------------------|
--5--5-5-5--5--5-5-5--5--5-5-|--5--5--5-5-5--5--6--5-----|
-----------------------------|------------------------6--|
                                                          
-----------------------------|---------------------------|
-----------------------------|---------------------------|
--5--5-5-5--5--5-5-5--5--5-5-|--5--5--5-5-5--5--6--5-----|
-----------------------------|------------------------6--|
                                                     
-----------------------------|---------------------------|
-----------------------------|---------------------------|
--5--5-5-5--5--5-5-5--5--5-5-|--5--5--5-5-5--5--6--5-----|
-----------------------------|------------------------6--|
                                                     
-----------------------------|---------------------------|
-----------------------------|---------------------------|
--5--5-5-5--5--5-5-5--5--5-5-|--5--5--5-5-5--5--6--5-----|
-----------------------------|------------------------6--|
                                                          
-----------------------------|---------------------------|
-----------------------------|---------------------------|
--5--5-5-5--5--5-5-5--5--5-5-|--5--5--5-5-5--5--6--5-----|
-----------------------------|------------------------6--|
                                                                                
------------------------|------------------------|-----------------------------|
------------------------|------------------------|-----------------------------|
--3--3-3-3--3------3----|--6--6-6-6--6------6----|--5--5-5-5--5--5-5-5--5--5-5-|
------------------------|------------------------|-----------------------------|
                                                 
---------------------------|--------------------------|
---------------------------|--7--------8--------5-----|
--5--5--5-5-5--5--6--5-----|-----5--5-----5--5-----5--|
------------------------6--|--------------------------|
                                               
--------------------------|--------------------------|
-----7--------7h-5--7h-5--|--7--------8--------5-----|
--5-----5--5--------------|-----5--5-----5--5-----5--|
--------------------------|--------------------------|
                                                      
--------------------------|--------------------------|
-----7--------7h-5--7h-5--|--5--------6--------3-----|
--5-----5--5--------------|-----3--3-----3--3-----3--|
--------------------------|--------------------------|
                                                                     
--------------------------|--------------------------|------------------------|
-----5--------5h-3--5h-3--|--3--------3--------3-----|-----3--------1----1----|
--3-----3--3--------------|-----1--1-----1--1-----1--|--1-----1--1------------|
--------------------------|--------------------------|------------------------|
                                                      
--------------------------|--------------------------|
--7--------8--------5-----|-----7--------7h-5--7h-5--|
-----5--5-----5--5-----5--|--5-----5--5--------------|
--------------------------|--------------------------|
                                                      
--------------------------|--------------------------|
--7--------8--------5-----|-----7--------7h-5--7h-5--|
-----5--5-----5--5-----5--|--5-----5--5--------------|
--------------------------|--------------------------|
                                           
--------------------------|--------------------------|
--5--------6--------3-----|-----5--------5h-3--5h-3--|
-----3--3-----3--3-----3--|--3-----3--3--------------|
--------------------------|--------------------------|
                                                    
--------------------------|------------------------|
--3--------3--------3-----|-----3--------1----1----|
-----1--1-----1--1-----1--|--1-----1--1------------|
--------------------------|------------------------|
                                                          
-----------------------------|---------------------------|
-----------------------------|---------------------------|
--5--5-5-5--5--5-5-5--5--5-5-|--5--5--5-5-5--5--6--5-----|
-----------------------------|------------------------6--|
                                                          
-----------------------------|---------------------------|
-----------------------------|---------------------------|
--5--5-5-5--5--5-5-5--5--5-5-|--5--5--5-5-5--5--6--5-----|
-----------------------------|------------------------6--|
                                                        
-----------------------------|---------------------------|
-----------------------------|---------------------------|
--5--5-5-5--5--5-5-5--5--5-5-|--5--5--5-5-5--5--6--5-----|
-----------------------------|------------------------6--|
                                                        
-----------------------------|---------------------------|
-----------------------------|---------------------------|
--5--5-5-5--5--5-5-5--5--5-5-|--5--5--5-5-5--5--6--5-----|
-----------------------------|------------------------6--|
                                                                               
------------------------|------------------------|-----------------------------|
------------------------|------------------------|-----------------------------|
--3--3-3-3--3------3----|--6--6-6-6--6------6----|--5--5-5-5--5--5-5-5--5--5-5-|
------------------------|------------------------|-----------------------------|
                                                         
---------------------------|-----------------------------|
---------------------------|-----------------------------|
--5--5--5-5-5--5--6--5-----|--5--5-5-5--5--5-5-5--5--5-5-|
------------------------6--|-----------------------------|
                                                        
---------------------------|-----------------------------|
---------------------------|-----------------------------|
--5--5--5-5-5--5--6--5-----|--5--5-5-5--5--5-5-5--5--5-5-|
------------------------6--|-----------------------------|
                                                          
---------------------------|-----------------------------|
---------------------------|-----------------------------|
--5--5--5-5-5--5--6--5-----|--5--5-5-5--5--5-5-5--5--5-5-|
------------------------6--|-----------------------------|
                                                        
---------------------------|-----------------------------|
---------------------------|-----------------------------|
--5--5--5-5-5--5--6--5-----|--5--5-5-5--5--5-5-5--5--5-5-|
------------------------6--|-----------------------------|
                                                                              
---------------------------|------------------------|------------------------|
---------------------------|------------------------|------------------------|
--5--5--5-5-5--5--6--5-----|--3--3-3-3--3------3----|--6--6-6-6--6------6----|
------------------------6--|------------------------|------------------------|
                                                          
-----------------------------|---------------------------|
-----------------------------|---------------------------|
--5--5-5-5--5--5-5-5--5--5-5-|--5--5--5-5-5--5--6--5-----|
-----------------------------|------------------------6--|
                                                      
--------------------------|--------------------------|
--7--------8--------5-----|-----7--------7h-5--7h-5--|
-----5--5-----5--5-----5--|--5-----5--5--------------|
--------------------------|--------------------------|
                                                     
--------------------------|--------------------------|
--7--------8--------5-----|-----7--------7h-5--7h-5--|
-----5--5-----5--5-----5--|--5-----5--5--------------|
--------------------------|--------------------------|
                                                      
--------------------------|--------------------------|
--5--------6--------3-----|-----5--------5h-3--5h-3--|
-----3--3-----3--3-----3--|--3-----3--3--------------|
--------------------------|--------------------------|
                                                                               
--------------------------|------------------------|--------------------------|
--3--------3--------3-----|-----3--------1----1----|--7--------8--------5-----|
-----1--1-----1--1-----1--|--1-----1--1------------|-----5--5-----5--5-----5--|
--------------------------|------------------------|--------------------------|
                                                      
--------------------------|--------------------------|
-----7--------7h-5--7h-5--|--7--------8--------5-----|
--5-----5--5--------------|-----5--5-----5--5-----5--|
--------------------------|--------------------------|
                                             
--------------------------|--------------------------|
-----7--------7h-5--7h-5--|--5--------6--------3-----|
--5-----5--5--------------|-----3--3-----3--3-----3--|
--------------------------|--------------------------|
                                                                               
--------------------------|--------------------------|------------------------|
-----5--------5h-3--5h-3--|--3--------3--------3-----|-----3--------1----1----|
--3-----3--3--------------|-----1--1-----1--1-----1--|--1-----1--1------------|
--------------------------|--------------------------|------------------------|
                                                          
-----------------------------|---------------------------|
-----------------------------|---------------------------|
--5--5-5-5--5--5-5-5--5--5-5-|--5--5--5-5-5--5--6--5-----|
-----------------------------|------------------------6--|
                                             
-----------------------------|--------------------6~---|
-----------------------------|--------------6h-7-------|
--5--5-5-5--5--5-5-5--5-5-5--|--5--3--5--6-------------|
-----------------------------|-------------------------|
                                                          
-----------------------------|---------------------------|
-----------------------------|---------------------------|
--5--5-5-5--5--5-5-5--5--5-5-|--5--5--5-5-5--5--6--5-----|
-----------------------------|------------------------6--|
                                                        
-----------------------------|--------------------6~---|
-----------------------------|--------------6h-7-------|
--5--5-5-5--5--5-5-5--5-5-5--|--5--3--5--6-------------|
-----------------------------|-------------------------|
                                                     
-----------------------------|---------------------------|
-----------------------------|---------------------------|
--5--5-5-5--5--5-5-5--5--5-5-|--5--5--5-5-5--5--6--5-----|
-----------------------------|------------------------6--|
                                             
-----------------------------|--------------------6~---|
-----------------------------|--------------6h-7-------|
--5--5-5-5--5--5-5-5--5-5-5--|--5--3--5--6-------------|
-----------------------------|-------------------------|
                                                          
-----------------------------|---------------------------|
-----------------------------|---------------------------|
--5--5-5-5--5--5-5-5--5--5-5-|--5--5--5-5-5--5--6--5-----|
-----------------------------|------------------------6--|
                                             
-----------------------------|--------------------6~---|
-----------------------------|--------------6h-7-------|
--5--5-5-5--5--5-5-5--5-5-5--|--5--3--5--6-------------|
-----------------------------|-------------------------|
                                                                    
------------------------|------------------------|-----------------------------|
------------------------|------------------------|-----------------------------|
--3--3-3-3--3------3----|--6--6-6-6--6------6----|--5--5-5-5--5--5-5-5--5--5-5-|
------------------------|------------------------|-----------------------------|
                                                 
---------------------------|-----------------------------|
---------------------------|-----------------------------|
--5--5--5-5-5--5--6--5-----|--5--5-5-5--5--5-5-5--5-5-5--|
------------------------6--|-----------------------------|
                                               
--------------------6~---|-----------------------------|
--------------6h-7-------|-----------------------------|
--5--3--5--6-------------|--5--5-5-5--5--5-5-5--5--5-5-|
-------------------------|-----------------------------|
                                                
---------------------------|-----------------------------|
---------------------------|-----------------------------|
--5--5--5-5-5--5--6--5-----|--5--5-5-5--5--5-5-5--5-5-5--|
------------------------6--|-----------------------------|
                                                                            
--------------------6~---|------------------------|------------------------|
--------------6h-7-------|------------------------|------------------------|
--5--3--5--6-------------|--3--3-3-3--3------3----|--6--6-6-6--6------6----|
-------------------------|------------------------|------------------------|
                                                                               
----------------------------|------------------------|------------------------|
----------------------------|-----7------------------|------------------------|
--5--5-5-5--5--5-5-5--5--5--|--5-----5--5--5----5----|--3--3-3-3--3------3----|
----------------------------|------------------------|------------------------|
                                                                               
------------------------|----------------------------|------------------------|
------------------------|----------------------------|-----7------------------|
--6--6-6-6--6------6----|--5--5-5-5--5--5-5-5--5--5--|--5-----5--5--5----5----|
------------------------|----------------------------|------------------------|
                                                                           
------------------------|------------------------|------------------------|
------------------------|------------------------|------------------------|
--5--5-5-5--5------5----|--6--6-6-6--6------6----|--8--8-8-8--8------8----|
------------------------|------------------------|------------------------|
                                                                               
------------------------|--------------------------|--------------------------|
------------------------|------------7-------------|------------8-------------|
--6--6-6-6--6------6----|--5--5-5-5-----5--5--5----|--6--6-6-6-----6--6--6----|
------------------------|--------------------------|--------------------------|
                                                  
---------------------------|--------------------------|
------------10-------------|------------8-------------|
--8--8-8-8------8--8--8----|--6--6-6-6-----6--6--6----|
---------------------------|--------------------------|
                                                        
-----------------------------|---------------------------|
-----------------------------|---------------------------|
--5--5-5-5--5--5-5-5--5--5-5-|--5--5--5-5-5--5--6--5-----|
-----------------------------|------------------------6--|
                                                          
-----------------------------|---------------------------|
-----------------------------|---------------------------|
--5--5-5-5--5--5-5-5--5--5-5-|--5--5--5-5-5--5--6--5-----|
-----------------------------|------------------------6--|
                                                          
-----------------------------|---------------------------|
-----------------------------|---------------------------|
--5--5-5-5--5--5-5-5--5--5-5-|--5--5--5-5-5--5--6--5-----|
-----------------------------|------------------------6--|
                                                          
-----------------------------|---------------------------|
-----------------------------|---------------------------|
--5--5-5-5--5--5-5-5--5--5-5-|--5--5--5-5-5--5--6--5-----|
-----------------------------|------------------------6--|
                                                                          
------------------------|------------------------|-----------------------------|
------------------------|------------------------|-----------------------------|
--3--3-3-3--3------3----|--6--6-6-6--6------6----|--5--5-5-5--5--5-5-5--5--5-5-|
------------------------|------------------------|-----------------------------|
                                                      
---------------------------|-----------------------------|
---------------------------|-----------------------------|
--5--5--5-5-5--5--6--5-----|--5--5-5-5--5--5-5-5--5--5-5-|
------------------------6--|-----------------------------|
                                                          
---------------------------|-----------------------------|
---------------------------|-----------------------------|
--5--5--5-5-5--5--6--5-----|--5--5-5-5--5--5-5-5--5--5-5-|
------------------------6--|-----------------------------|
                                                          
---------------------------|-----------------------------|
---------------------------|-----------------------------|
--5--5--5-5-5--5--6--5-----|--5--5-5-5--5--5-5-5--5--5-5-|
------------------------6--|-----------------------------|
                                                          
---------------------------|-----------------------------|
---------------------------|-----------------------------|
--5--5--5-5-5--5--6--5-----|--5--5-5-5--5--5-5-5--5--5-5-|
------------------------6--|-----------------------------|
                                                                              
---------------------------|------------------------|------------------------|
---------------------------|------------------------|------------------------|
--5--5--5-5-5--5--6--5-----|--3--3-3-3--3------3----|--6--6-6-6--6------6----|
------------------------6--|------------------------|------------------------|
                                               
-----------------------------|---------------------------|
-----------------------------|---------------------------|
--5--5-5-5--5--5-5-5--5--5-5-|--5--5--5-5-5--5--6--5-----|
-----------------------------|------------------------6--|
                                                      
--------------------------|--------------------------|
--7--------8--------5-----|-----7--------7h-5--7h-5--|
-----5--5-----5--5-----5--|--5-----5--5--------------|
--------------------------|--------------------------|
                                                      
--------------------------|--------------------------|
--7--------8--------5-----|-----7--------7h-5--7h-5--|
-----5--5-----5--5-----5--|--5-----5--5--------------|
--------------------------|--------------------------|
                                                      
--------------------------|--------------------------|
--5--------6--------3-----|-----5--------5h-3--5h-3--|
-----3--3-----3--3-----3--|--3-----3--3--------------|
--------------------------|--------------------------|
                                                                               
--------------------------|------------------------|--------------------------|
--3--------3--------3-----|-----3--------1----1----|--7--------8--------5-----|
-----1--1-----1--1-----1--|--1-----1--1------------|-----5--5-----5--5-----5--|
--------------------------|------------------------|--------------------------|
                                                      
--------------------------|--------------------------|
-----7--------7h-5--7h-5--|--7--------8--------5-----|
--5-----5--5--------------|-----5--5-----5--5-----5--|
--------------------------|--------------------------|

--------------------------|--------------------------|
-----7--------7h-5--7h-5--|--5--------6--------3-----|
--5-----5--5--------------|-----3--3-----3--3-----3--|
--------------------------|--------------------------|
                                                                               
--------------------------|--------------------------|------------------------|
-----5--------5h-3--5h-3--|--3--------3--------3-----|-----3--------1----1----|
--3-----3--3--------------|-----1--1-----1--1-----1--|--1-----1--1------------|
--------------------------|--------------------------|------------------------|
                                                 
--------------------------|--------------------------|
--7--------8--------5-----|-----7--------7h-5--7h-5--|
-----5--5-----5--5-----5--|--5-----5--5--------------|
--------------------------|--------------------------|
                                                      
--------------------------|--------------------------|
--7--------8--------5-----|-----7--------7h-5--7h-5--|
-----5--5-----5--5-----5--|--5-----5--5--------------|
--------------------------|--------------------------|
                                                      
--------------------------|--------------------------|
--5--------6--------3-----|-----5--------5h-3--5h-3--|
-----3--3-----3--3-----3--|--3-----3--3--------------|
--------------------------|--------------------------|
                                                                              
--------------------------|------------------------|--------------------------|
--3--------3--------3-----|-----3--------1----1----|--7--------8--------5-----|
-----1--1-----1--1-----1--|--1-----1--1------------|-----5--5-----5--5-----5--|
--------------------------|------------------------|--------------------------|
                                                      
--------------------------|--------------------------|
-----7--------7h-5--7h-5--|--7--------8--------5-----|
--5-----5--5--------------|-----5--5-----5--5-----5--|
--------------------------|--------------------------|
                                                      
--------------------------|--------------------------|
-----7--------7h-5--7h-5--|--5--------6--------3-----|
--5-----5--5--------------|-----3--3-----3--3-----3--|
--------------------------|--------------------------|
                                                                               
--------------------------|--------------------------|------------------------|
-----5--------5h-3--5h-3--|--3--------3--------3-----|-----3--------1----1----|
--3-----3--3--------------|-----1--1-----1--1-----1--|--1-----1--1------------|
--------------------------|--------------------------|------------------------|
                                                                           
------------------------|------------------------|------------------------|
------------------------|------------------------|------------------------|
--5--5-5-5--5------5----|--6--6-6-6--6------6----|--8--8-8-8--8------8----|
------------------------|------------------------|------------------------|
                                                                           
------------------------|------------------------|------------------------|
------------------------|------------------------|------------------------|
--6--6-6-6--6------6----|--5--5-5-5--5------5----|--6--6-6-6--6------6----|
------------------------|------------------------|------------------------|
                                                                      
------------------------|------------------------|-------------------|
------------------------|------------------------|-------------------|
--8--8-8-8--8------8----|--6--6-6-6--6------3----|--5/---------------|
------------------------|------------------------|-------------------|
                    
------------------||
------------------||
------------------||
------------------||
Composição de Schaffer
Colaboração e revisão:
  • Taino Vieira
27 exibições

0 comentários

Ver todos os comentários

Conseguiu tocar?

0 Tocaram 0 Ainda não

Grave um vídeo tocando Birth Of The Wicked e nos envie!

00:00 / 00:00
outros vídeos desta música
repetir qualidade Automático
Outros vídeos desta música
00:00 / 00:00
Automático

Cifra Club Pro

Aproveite o Cifra Club com benefícios exclusivos e sem anúncios
Cifra Club Pro
Aproveite o Cifra Club com benefícios exclusivos e sem anúncios
OK