Cifra Club

Aprenda

Burnt Offerings

Iced Earth

Tab de baixo: Principal
Tune Down

F#||------|------|------|------|------|------|------|------|------|------|
C#||------|------|------|------|------|------|------|------|------|------|
G#||------|------|------|------|------|------|------|------|------|------|
D#||------|------|------|------|------|------|------|------|------|------|
                                                              
------|------|------|------|------|------|-------------------|
------|------|------|------|------|------|-------------------|
------|------|------|------|------|------|-------------------|
------|------|------|------|------|------|--5----------------|
                                                                
--------------------|----------------------|-------------------|
--------------------|----------------------|-------------------|
--------------------|----------------------|-------------------|
--4--4--------------|--5----------0--7--5--|--4----------------|
                                         
-------------------|--------------------|----------------------|
-------------------|--------------------|----------------------|
-------------------|--------------------|----------------------|
--5----------------|--4--4--------------|--5----------0--7--5--|
                                                                                
-------------------|-------------------|-------------------|-------------------|
-------------------|-------------------|-------------------|-------------------|
-------------------|--4----------------|--3----------------|--4----------------|
--4----------------|-------------------|-------------------|-------------------|
                                                             
-------------------|--------------------------|--------------------------|
-------------------|--------------------------|--------------------------|
--3----------------|--4--4--4--4--4--4--4--4--|--3--3--3--3--3--3--3--3--|
-------------------|--------------------------|--------------------------|
                                                                
--------------------------|--------------------------|-------------------|
--------------------------|--------------------------|-------------------|
--4--4--4--4--4--4--4--4--|--3--3--3--3--3--3--3--3--|--4----------------|
--------------------------|--------------------------|-------------------|
                                                     
--------------------|-------------------|--------------------|
--------------------|-------------------|--------------------|
----------7----7----|--4----------------|----------7----7----|
--------------------|-------------------|--------------------|
                                                                       
-------------------|------------------|-------------------------------|
-------------------|------------------|-------------------------------|
--3----------------|------------------|--4--4-4-4-4-5--5-5-5-5-4--4-4-|
-------------------|------------------|-------------------------------|
                                                                
-------------------------------|-------------------------------|
-------------------------------|-------------------------------|
--4-4-4--4-4-4-4-7--7-7-7--7-7-|--4--4-4-4-4-5--5-5-5-5-4--4-4-|
-------------------------------|-------------------------------|
                                                               
------------------------------|-------------------------------|
------------------------------|-------------------------------|
--4-4-4--4-4-4-4-7-7-7-7-7/---|--3--3-3-3-3-3--3-3-3-3-3--3-3-|
------------------------------|-------------------------------|
                                                        
------------------------------|-------------------------------|
------------------------------|-------------------------------|
--3-3-3--3-3-3-3-3--3-3-3--3--|--4--4-4-4-4-5--5-5-5-5-4--4-4-|
------------------------------|-------------------------------|
                                                       
-------------------------------|-------------------------------|
-------------------------------|-------------------------------|
--4-4-4--4-4-4-4-7--7-7-7--7-7-|--4--4-4-4-4-5--5-5-5-5-4--4-4-|
-------------------------------|-------------------------------|
                                                        
------------------------------|-------------------------------|
------------------------------|-------------------------------|
--4-4-4--4-4-4-4-7-7-7-7-7/---|--3--3-3-3-3-3--3-3-3-3-3--3-3-|
------------------------------|-------------------------------|
                                                       
------------------------------|-------------------------------|
------------------------------|-------------------------------|
--3-3-3--3-3-3-3-3--3-3-3--3--|--4--4-4-4-4-5--5-5-5-5-4--4-4-|
------------------------------|-------------------------------|
                                                                
-------------------------------|-------------------------------|
-------------------------------|-------------------------------|
--4-4-4--4-4-4-4-7--7-7-7--7-7-|--4--4-4-4-4-5--5-5-5-5-4--4-4-|
-------------------------------|-------------------------------|
                                                               
------------------------------|-------------------------------|
------------------------------|-------------------------------|
--4-4-4--4-4-4-4-7-7-7-7-7/---|--3--3-3-3-3-3--3-3-3-3-3--3-3-|
------------------------------|-------------------------------|
                                                               
------------------------------|-------------------------------|
------------------------------|-------------------------------|
--3-3-3--3-3-3-3-3--3-3-3--3--|--4--4-4-4-4-5--5-5-5-5-4--4-4-|
------------------------------|-------------------------------|
                                                                
-------------------------------|-------------------------------|
-------------------------------|-------------------------------|
--4-4-4--4-4-4-4-7--7-7-7--7-7-|--4--4-4-4-4-5--5-5-5-5-4--4-4-|
-------------------------------|-------------------------------|
                                                               
------------------------------|-------------------------------|
------------------------------|-------------------------------|
--4-4-4--4-4-4-4-7-7-7-7-7/---|--3--3-3-3-3-3--3-3-3-3-3--3-3-|
------------------------------|-------------------------------|
                                                          
------------------------------|--------------------------|
------------------------------|--------------------------|
--3-3-3--3-3-3-3-3--3-3-3--3--|--4--4--4--4--4--4--4--4--|
------------------------------|--------------------------|
                                                      
--------------------------|--------------------------|
--------------------------|--------------------------|
--4--4--4--4--4--4--4--4--|--4--4--4--4--4--4--4--4--|
--------------------------|--------------------------|
                                                  
--------------------------|--------------------------|
--------------------------|--------------------------|
--4--4--4--4--4--4--4--2--|--2--2--2--2--2--2--2--2--|
--------------------------|--------------------------|
                                                  
--------------------------|--------------------------|
--------------------------|--------------------------|
--2--2--2--2--2--2--2--2--|--2--2--2--2--2--2--2--2--|
--------------------------|--------------------------|
                                                      
--------------------------|--------------------------|
--------------------------|--------------------------|
--2--2--2--2--2--2--2--4--|--4--4--4--4--4--4--4--4--|
--------------------------|--------------------------|
                                                 
--------------------------|--------------------------|
--------------------------|--------------------------|
--4--4--4--4--4--4--4--4--|--4--4--4--4--4--4--4--4--|
--------------------------|--------------------------|
                                                      
--------------------------|--------------------------|
--------------------------|--------------------------|
--4--4--4--4--4--4--4--2--|--2--2--2--2--2--2--2--2--|
--------------------------|--------------------------|

--------------------------|--------------------------|
--------------------------|--------------------------|
--2--2--2--2--2--2--2--2--|--2--2--2--2--2--2--2--2--|
--------------------------|--------------------------|
                                                           
--------------------------|-------------------------------|
--------------------------|-------------------------------|
--2--2--2--2--2--2--2--2--|--4--4-4-4-4-5--5-5-5-5-4--4-4-|
--------------------------|-------------------------------|
                                                                
-------------------------------|-------------------------------|
-------------------------------|-------------------------------|
--4-4-4--4-4-4-4-7--7-7-7--7-7-|--4--4-4-4-4-5--5-5-5-5-4--4-4-|
-------------------------------|-------------------------------|
                                                           
------------------------------|-------------------------------|
------------------------------|-------------------------------|
--4-4-4--4-4-4-4-7-7-7-7-7/---|--3--3-3-3-3-3--3-3-3-3-3--3-3-|
------------------------------|-------------------------------|
                                                               
------------------------------|-------------------------------|
------------------------------|-------------------------------|
--3-3-3--3-3-3-3-3--3-3-3--3--|--4--4-4-4-4-5--5-5-5-5-4--4-4-|
------------------------------|-------------------------------|
                                                                
-------------------------------|-------------------------------|
-------------------------------|-------------------------------|
--4-4-4--4-4-4-4-7--7-7-7--7-7-|--4--4-4-4-4-5--5-5-5-5-4--4-4-|
-------------------------------|-------------------------------|
                                                               
------------------------------|-------------------------------|
------------------------------|-------------------------------|
--4-4-4--4-4-4-4-7-7-7-7-7/---|--3--3-3-3-3-3--3-3-3-3-3--3-3-|
------------------------------|-------------------------------|
                                                          
------------------------------|-------------------------------|
------------------------------|-------------------------------|
--3-3-3--3-3-3-3-3--3-3-3--3--|--4--4-4-4-4-5--5-5-5-5-4--4-4-|
------------------------------|-------------------------------|
                                                                
-------------------------------|-------------------------------|
-------------------------------|-------------------------------|
--4-4-4--4-4-4-4-7--7-7-7--7-7-|--4--4-4-4-4-5--5-5-5-5-4--4-4-|
-------------------------------|-------------------------------|
                                                             
------------------------------|-------------------------------|
------------------------------|-------------------------------|
--4-4-4--4-4-4-4-7-7-7-7-7/---|--3--3-3-3-3-3--3-3-3-3-3--3-3-|
------------------------------|-------------------------------|
                                                               
------------------------------|-------------------------------|
------------------------------|-------------------------------|
--3-3-3--3-3-3-3-3--3-3-3--3--|--4--4-4-4-4-5--5-5-5-5-4--4-4-|
------------------------------|-------------------------------|
                                                                
-------------------------------|-------------------------------|
-------------------------------|-------------------------------|
--4-4-4--4-4-4-4-7--7-7-7--7-7-|--4--4-4-4-4-5--5-5-5-5-4--4-4-|
-------------------------------|-------------------------------|
                                                               
------------------------------|-------------------------------|
------------------------------|-------------------------------|
--4-4-4--4-4-4-4-7-7-7-7-7/---|--3--3-3-3-3-3--3-3-3-3-3--3-3-|
------------------------------|-------------------------------|
                                                         
------------------------------|--------------------------|
------------------------------|--------------------------|
--3-3-3--3-3-3-3-3--3-3-3--3--|--4--4--4--4--4--4--4--4--|
------------------------------|--------------------------|
                                                      
--------------------------|--------------------------|
--------------------------|--------------------------|
--4--4--4--4--4--4--4--4--|--4--4--4--4--4--4--4--4--|
--------------------------|--------------------------|
                                                    
--------------------------|--------------------------|
--------------------------|--------------------------|
--4--4--4--4--4--4--4--2--|--2--2--2--2--2--2--2--2--|
--------------------------|--------------------------|
                                                      
--------------------------|--------------------------|
--------------------------|--------------------------|
--2--2--2--2--2--2--2--2--|--2--2--2--2--2--2--2--2--|
--------------------------|--------------------------|
                                                      
--------------------------|--------------------------|
--------------------------|--------------------------|
--2--2--2--2--2--2--2--4--|--4--4--4--4--4--4--4--4--|
--------------------------|--------------------------|
                                                
--------------------------|--------------------------|
--------------------------|--------------------------|
--4--4--4--4--4--4--4--4--|--4--4--4--4--4--4--4--4--|
--------------------------|--------------------------|
                                                  
--------------------------|--------------------------|
--------------------------|--------------------------|
--4--4--4--4--4--4--4--2--|--2--2--2--2--2--2--2--2--|
--------------------------|--------------------------|
                                                  
--------------------------|--------------------------|
--------------------------|--------------------------|
--2--2--2--2--2--2--2--2--|--2--2--2--2--2--2--2--2--|
--------------------------|--------------------------|
                                                   
--------------------------|--------------------------|
--------------------------|--------------------------|
--2--2--2--2--2--2--2--2--|--4--4--4--4--4--4--4--4--|
--------------------------|--------------------------|
                                                      
--------------------------|--------------------------|
--------------------------|--------------------------|
--------------------------|--2--2--2--2--2--2--2--2--|
--0--0--0--0--0--0--0--0--|--------------------------|
                                                     
--------------------------|--------------------------|
--------------------------|--------------------------|
--0--0--0--0--------------|--4--4--4--4--4--4--4--4--|
--------------2--2--2--2--|--------------------------|
                                                     
--------------------------|--------------------------|
--------------------------|--------------------------|
--------------------------|--2--2--2--2--2--2--2--2--|
--0--0--0--0--0--0--0--0--|--------------------------|
                                                    
--------------------------|--------------------------|
--------------------------|--------------------------|
--0--0--0--0--------------|--4--4--4--4--4--4--4--4--|
--------------2--2--2--2--|--------------------------|
                                                  
--------------------------|--------------------------|
--------------------------|--------------------------|
--------------------------|--2--2--2--2--2--2--2--2--|
--0--0--0--0--0--0--0--0--|--------------------------|
                                                 
--------------------------|--------------------------|
--------------------------|--------------------------|
--0--0--0--0--------------|--4--4--4--4--4--4--4--4--|
--------------2--2--2--2--|--------------------------|
                                                                         
--------------------------|--------------------------|-------------------------|
--------------------------|--------------------------|-------------------------|
--------------------------|--2--2--2--2--2--2--2--2--|--0--0--0--0-------------|
--0--0--0--0--0--0--0--0--|--------------------------|--------------2--2--2----|
                                                                        
-----------------------|-----------------------|-----------------------|
-----------------------|-----------------------|-----------------------|
----3---3---4---4---4--|----3---3---2---2---2--|----3---3---4---4---4--|
-----------------------|-----------------------|-----------------------|
                                                                      
---------------------|-----------------------|-----------------------|
---------------------|-----------------------|-----------------------|
---------------------|----3---3---4---4---4--|----3---3---2---2---2--|
--0---1---3----------|-----------------------|-----------------------|
                                                                        
-----------------------|---------------------|--------------------------------|
-----------------------|---------------------|--------------------------------|
----3---3---4---4---4--|---------------------|--------------------------------|
-----------------------|--0---1---3----------|--0-2-2-2-2-2-2-2-2-2-2-2-3--3--|
                                                               
--------------------------------|--------------------------------|
--------------------------------|--------------------------------|
--------------------------------|--------------------------------|
--0-2-2-2-2-2-2-2-2-2-2-2-0--0--|--0-2-2-2-2-2-2-2-2-2-2-2-3--3--|
                                                      
----------------------|--------------------------------|
----------------------|--------------------------------|
----------------------|--------------------------------|
--0---1---3------5----|--0-2-2-2-2-2-2-2-2-2-2-2-3--3--|
                                                                
--------------------------------|--------------------------------|
--------------------------------|--------------------------------|
--------------------------------|--------------------------------|
--0-2-2-2-2-2-2-2-2-2-2-2-0--0--|--0-2-2-2-2-2-2-2-2-2-2-2-3--3--|
                                                   
----------------------|--------------------------------|
----------------------|--------------------------------|
----------------------|--------------------------------|
--0---1---3------5----|--0-2-2-2-2-2-2-2-2-2-2-2-3--3--|
                                                             
--------------------------------|--------------------------------|
--------------------------------|--------------------------------|
--------------------------------|--------------------------------|
--0-2-2-2-2-2-2-2-2-2-2-2-0--0--|--0-2-2-2-2-2-2-2-2-2-2-2-3--3--|
                                                        
----------------------|--------------------------------|
----------------------|--------------------------------|
----------------------|--------------------------------|
--0---1---3------5----|--0-2-2-2-2-2-2-2-2-2-2-2-3--3--|
                                                                  
--------------------------------|--------------------------------|
--------------------------------|--------------------------------|
--------------------------------|--------------------------------|
--0-2-2-2-2-2-2-2-2-2-2-2-0--0--|--0-2-2-2-2-2-2-2-2-2-2-2-3--3--|

---------------------|-------------------|------------------|------------------|
---------------------|-------------------|------------------|------------------|
---------------------|-------------------|------------------|------------------|
--0---1---3----------|--7----------------|------------------|------------------|
                                                                             
------------------|------------------|------------------|-------------------|
------------------|------------------|------------------|-------------------|
------------------|------------------|------------------|-------------------|
------------------|------------------|------------------|--0----------------|

-------------------|-------------------|--------------------|
-------------------|-------------------|--------------------|
-------------------|-------------------|--0-----------------|
--1----------------|--0----------------|-----------3--------|
                                                            
-------------------|-------------------|-------------------|
-------------------|-------------------|-------------------|
-------------------|-------------------|-------------------|
--0----------------|--1----------------|--0----------------|
                                                             
--------------------|-------------------|-------------------|
--------------------|-------------------|-------------------|
--0-----------------|--2----------------|--3----------------|
-----------3--------|-------------------|-------------------|
                                                             
-------------------|--------------------|-------------------|
-------------------|--------------------|-------------------|
--2----------------|--0-----------------|--2----------------|
-------------------|-----------3--------|-------------------|
                                                             
-------------------|-------------------|--------------------|
-------------------|-------------------|--------------------|
--3----------------|--2----------------|--0-----------------|
-------------------|-------------------|-----------3--------|
                                                                  
--4-------------4----|--5-------------5----|--4-------------4----|
-----------5---------|-----------5---------|-----------5---------|
--2------------------|---------------------|---------------------|
---------------------|---------------------|---------------------|
                                                                  
--2------4/-0--------|--4-------------4----|--5-------------5----|
---------------------|-----------5---------|-----------5---------|
---------------------|---------------------|---------------------|
---------------------|---------------------|---------------------|
                                                                
--4-------------4----|--2------4/-0--------|-------------------|
-----------5---------|---------------------|-------------------|
---------------------|---------------------|-------------------|
---------------------|---------------------|--5----------------|
                                                             
-------------------|--------------------|-------------------|
-------------------|--------------------|-------------------|
-------------------|--------------------|-------------------|
--4----------------|--5--------------7--|--4----------------|
                                                                                
-------------------|-------------------|-------------------|-------------------|
-------------------|-------------------|-------------------|-------------------|
-------------------|-------------------|-------------------|-------------------|
--5----------------|--4----------------|--5----------------|--4----------------|
                                                                       
-----------------------|-----------------------|----------------------|
--7--------9----9--10--|--6------6-7-6------6--|--7--------9----10----|
-----------------------|-----------------------|----------------------|
-----------------------|-----------------------|----------------------|
                                                              
-------------------|----------------------|-----------------------|
--6----------------|--7--------9----10----|--6------6-7-6------6--|
-------------------|----------------------|-----------------------|
-------------------|----------------------|-----------------------|
                                                                  
----------------------|-------------9--------|-------------------|
--7--------9----10----|--6------10-----------|-------------------|
----------------------|----------------------|-------------------|
----------------------|----------------------|--5----------------|
                                                               
--------------------|---------------------|-------------------|
--------------------|---------------------|-------------------|
--------------------|---------------------|-------------------|
--4--4--------------|--5------------7--5--|--4----------------|
                                                                 
-------------------|----------------------|---------------------|
-------------------|----------------------|---------------------|
-------------------|----------------------|---------------------|
--5----------------|--4--4--7/---0--------|--5------------7--5--|
                                                       
-------------------|----------------------------------|
-------------------|----------------------------------|
-------------------|--4-4-4-4-4-4-5-5-5-5-5-5-4-4-4-4-|
--4----------------|----------------------------------|
                                                                      
----------------------------------|----------------------------------|
----------------------------------|----------------------------------|
--4-4-4-4-4-4-4-4-7-7-7-7-7-7-7-7-|--4-4-4-4-4-4-5-5-5-5-5-5-4-4-4-4-|
----------------------------------|----------------------------------|
                                                             
----------------------------------|----------------------------------|
----------------------------------|----------------------------------|
--4-4-4-4-4-4-4-4-7-7-7-7-7-7-7-7-|--3-3-3-3-3-3-3-3-3-3-3-3-3-3-3-3-|
----------------------------------|----------------------------------|
                                                            
----------------------------------|----------------------------------|
----------------------------------|----------------------------------|
--3-3-3-3-3-3-3-3-3-3-3-3-3-3-3-3-|--4-4-4-4-4-4-5-5-5-5-5-5-4-4-4-4-|
----------------------------------|----------------------------------|
                                                                      
----------------------------------|----------------------------------|
----------------------------------|----------------------------------|
--4-4-4-4-4-4-4-4-7-7-7-7-7-7-7-7-|--4-4-4-4-4-4-5-5-5-5-5-5-4-4-4-4-|
----------------------------------|----------------------------------|
                                                               
----------------------------------|----------------------------------|
----------------------------------|----------------------------------|
--4-4-4-4-4-4-4-4-7-7-7-7-7-7-7-7-|--3-3-3-3-3-3-3-3-3-3-3-3-3-3-3-3-|
----------------------------------|----------------------------------|
Composição de Jon Schaffer / Randall Shawver
Colaboração e revisão:
  • Taino Vieira
21 exibições

0 comentários

Ver todos os comentários

Conseguiu tocar?

0 Tocaram 0 Ainda não

Grave um vídeo tocando Burnt Offerings e nos envie!

00:00 / 00:00
outros vídeos desta música
repetir qualidade Automático
Outros vídeos desta música
00:00 / 00:00
Automático

Cifra Club Pro

Aproveite o Cifra Club com benefícios exclusivos e sem anúncios
Cifra Club Pro
Aproveite o Cifra Club com benefícios exclusivos e sem anúncios
OK