Cifra Club

Aprenda

Curse the Sky

Iced Earth

Tab de baixo: Principal
tune down

F#||---------------------|---------------------|----------------------|
C#||---------------------|---------------------|----------------------|
G#||---------------------|---------------------|----------------------|
D#||--0-0-0--------------|--0-0-0--------------|--0-0-0------------7--|
                                  
----------------------|---------------------|---------------------|
----------------------|---------------------|---------------------|
----------------------|---------------------|---------------------|
----8------2----2--0--|--0-0-0--------------|--0-0-0--------------|
                                                              
---------------0----------|-----------------------|---------------------|
------------4-------4-----|-----------------------|---------------------|
---------5-------------5--|-----------------------|---------------------|
--0-0-0-------------------|----8------2--3--2--0--|--0-0-0--------------|
                                                                         
---------------------|---------------0----------|-----------------------|
---------------------|------------4-------4-----|-----------------------|
---------------------|---------5-------------5--|-----------------------|
--0-0-0--------------|--0-0-0-------------------|----8------2--3--2--0--|
                                                                       
---------------------|---------------------|---------------0----------|
---------------------|---------------------|------------4-------4-----|
---------------------|---------------------|---------5-------------5--|
--0-0-0--------------|--0-0-0--------------|--0-0-0-------------------|
                                                              
-----------------------|------------------------|------------------------|
-----------------------|------------------------|------------------------|
-----------------------|---------7--7--------7--|---------7--5--------5--|
----8------2--3--2--0--|--0-0-0-----------------|--0-0-0-----------------|
                                                                 
---------------0----------|----------------------|------------------------|
--------------------4-----|----------------------|------------------------|
---------5-------------5--|----3-----------------|---------7--7--------7--|
--0-0-0-----0-------------|-----------2----3--2--|--0-0-0-----------------|
                                                                           
------------------------|---------------0----------|----------------------|
------------------------|--------------------4-----|----------------------|
---------7--5--------5--|---------5-------------5--|----3-----------------|
--0-0-0-----------------|--0-0-0-----0-------------|-----------2----3--2--|
                                                                      
------------------------|------------------------|---------------0----------|
------------------------|------------------------|--------------------4-----|
---------7--------------|---------7--5--------5--|---------5-------------5--|
--0-0-0-----0--------0--|--0-0-0-----------------|--0-0-0-----0-------------|
                                                                         
----------------------|------------------------|------------------------|
----------------------|------------------------|------------------------|
----3-----------------|---------7--------------|---------7--5--------5--|
-----------2----3--2--|--0-0-0-----0--------0--|--0-0-0-----------------|
                                                                            
---------------0----------|----------------------|-------------------------|
--------------------4-----|----------------------|-------------------------|
---------5-------------5--|----3-----------------|-------------------------|
--0-0-0-----0-------------|-----------2----3--2--|--0-0-0-0--0-0--------0--|
                                                                  
--------------------------|-------7--------------|------------------------|
--------------------------|----------7-----------|------------------------|
------5--7----------7-----|--5----------5--------|--10----10--9------9----|
--0-0------------------5--|----------------------|------------------------|
                                                             
---------------------|---------------------|-------7--------------|
---------------------|---------------------|----------7-----------|
--7------------------|---------------------|--5----------5--------|
---------------12/---|--0------------0--0--|----------------------|
                                                                     
------------------------|---------------------|---------------------|
------------------------|---------------------|---------------------|
--10----10--9------9----|--7------------------|---------------------|
------------------------|---------------12/---|--0------------0--0--|
                                                                    
----------7------------|------------------------|------------------------|
-------7-------7-------|------------------------|-----5-----4------4-----|
--5---------------5----|--10----10--9------9----|------------------------|
-----------------------|------------------------|--0-----0------------0--|
                                                     
---------------------------|------------------------|
---------------------------|-----5-----4------4-----|
---------------------------|------------------------|
--7----0--8----0-0-3-2-3-2-|--0-----0------------0--|

---------------------------|------------------------|
---------------------------|-----5-----4------4-----|
---------------------------|------------------------|
--7----0--8----0-0-3-2-3-2-|--0-----0------------0--|
                                                     
---------------------------|------------------------|
---------------------------|-----5-----4------4-----|
---------------------------|------------------------|
--7----0--8----0-0-3-2-3-2-|--0-----0------------0--|
                                                                    
---------------------------|-------------------|-------------------|
---------------------------|-------------------|-------------------|
---------------------------|-------------------|-------------------|
--7----0--8----0-0-3-2-3-2-|--0----------------|--0----------------|

-------------------------|--------------------|
-------------------------|--------------------|
------------12-10--8-10--|--7-------8---------|
-------------------------|--------------------|
                                                        
---------------------------------|-------------------------------|
---------------------------------|-------------------------------|
--7------------8----12-10--8-10--|--7------------8---------------|
-----0-0-0-0-0----0--------------|-----0-0-0-0-0-----0-0-0-0-0-0-|
                                                              
---------------------------------|--------------------------------|
---------------------------------|--------------------------------|
--7------------8----12-10--8-10--|--7------------8---------10-9-7-|
-----0-0-0-0-0----0--------------|-----0-0-0-0-0-----0-0-0--------|
                                                          
---------------------------------|-------------------------------|
---------------------------------|-------------------------------|
--7------------8----12-10--8-10--|--7------------8---------------|
-----0-0-0-0-0----0--------------|-----0-0-0-0-0-----0-0-0-0-0-0-|
                                                                   
---------------------------------|--------------------------------|
---------------------------------|--------------------------------|
--7------------8----12-10--8-10--|--7------------8---------10-9-7-|
-----0-0-0-0-0----0--------------|-----0-0-0-0-0-----0-0-0--------|
                                                            
---------------------------------|-------------------------|
---------------------------------|-------------------------|
--7------------8----12-10--8-10--|--7----7----7--7-7-7-8---|
-----0-0-0-0-0----0--------------|-------------------------|
                                                             
-----------------------------|------------------------------|
-----------------------------|------------------------------|
--5--5-5-5--5-5-5--5-5-5-7---|--2--2-2-2--2-2-5--5-5-5--5-5-|
-----------------------------|------------------------------|
                                                           
--------------------------------|-------------------------|
--------------------------------|-------------------------|
--7--7-7-7--7-7-7-5-5-5-5-3-3-3-|--7----7----7--7-7-7-8---|
--------------------------------|-------------------------|
                                                             
-----------------------------|------------------------------|
-----------------------------|------------------------------|
--5--5-5-5--5-5-5--5-5-5-7---|--2--2-2-2--2-2-5--5-5-5--5-5-|
-----------------------------|------------------------------|
                                                             
--------------------------------|---------------------------|
--------------------------------|---------2-----------2-3---|
--7--7-7-7--7-7-7-5-5-5-5-3-3-3-|-------2-------------------|
--------------------------------|--0--0--------0--0-0-------|
                                                      
---------------------------|--------------------------|
---------------------------|--------------------------|
--5--5-5-5-------5-5-5-7---|--2--2-2-2----5--5-5-5----|
--------------0------------|--------------------------|
                                                             
--------------------------------|---------------------------|
--------------------------------|---------2-----------2-3---|
--7--7-7-7--7-7-7-5-5-5-5-3-3-3-|-------2-------------------|
--------------------------------|--0--0--------0--0-0-------|
                                                       
---------------------------|--------------------------|
---------------------------|--------------------------|
--5--5-5-5-------5-5-5-7---|--2--2-2-2----5--5-5-5----|
--------------0------------|--------------------------|
                                                               
--------------------------------|-----------------------------|
--------------------------------|-----------------------------|
--7--7-7-7--7-7-7-5-5-5-5-3-3-3-|--7--7-7-7--7-7-7--7-7-7-8---|
--------------------------------|-----------------------------|
                                                        
-----------------------------|-------------------------------|
-----------------------------|-------------------------------|
--5--5-5-5--5-5-5--5-5-5-7---|--2--2-2-2--2-2-2-5-5-5-5--5-5-|
-----------------------------|-------------------------------|
                                                                
---------------------------------|-----------------------------|
---------------------------------|-----------------------------|
--5-7-7-7-7--7-7-7-5-5-5-5-3-3-3-|--7--7-7-7--7-7-7--7-7-7-8---|
---------------------------------|-----------------------------|
                                                              
-----------------------------|-------------------------------|
-----------------------------|-------------------------------|
--5--5-5-5--5-5-5--5-5-5-7---|--2--2-2-2--2-2-2-5-5-5-5--5-5-|
-----------------------------|-------------------------------|
                                                                
---------------------------------|-----------------------------|
---------------------------------|-----------------------------|
--5-7-7-7-7--7-7-7-5-5-5-5-3-3-3-|--7--7-7-7--7-7-7--7-7-7-8---|
---------------------------------|-----------------------------|
                                                              
-----------------------------|-------------------------------|
-----------------------------|-------------------------------|
--5--5-5-5--5-5-5--5-5-5-7---|--2--2-2-2--2-2-2-5-5-5-5--5-5-|
-----------------------------|-------------------------------|
                                                                
---------------------------------|-----------------------------|
---------------------------------|-----------------------------|
--5-7-7-7-7--7-7-7-5-5-5-5-3-3-3-|--7--7-7-7--7-7-7--7-7-7-8---|
---------------------------------|-----------------------------|
                                                       
-----------------------------|-------------------------------|
-----------------------------|-------------------------------|
--5--5-5-5--5-5-5--5-5-5-7---|--2--2-2-2--2-2-2-5-5-5-5--5-5-|
-----------------------------|-------------------------------|
                                                                              
---------------------------------|---------------------|---------------------|
---------------------------------|---------------------|---------------------|
--5-7-7-7-7--7-7-7-5-5-5-5-3-3-3-|---------------------|--5--7----------7/---|
---------------------------------|--0--------------0-0-|---------------------|
                                                                     
-------7--------------|------------------------|-------------------------|
----------7-----------|------------------------|-----5--7--9----7--------|
--5----------5--------|--10----10--9------9----|--7------------------10--|
----------------------|------------------------|-------------------------|
                                                                  
---------------------|-------7--------------|------------------------|
---------------------|----------7-----------|------------------------|
---------------------|--5----------5--------|--10----10--9------9----|
--0------------0--0--|----------------------|------------------------|
                                                                    
---------------------|---------------------|----------7------------|
---------------------|---------------------|-------7-------7-------|
--7------------------|---------------------|--5---------------5----|
---------------12/---|--0------------0--0--|-----------------------|
                                                                              
------------------------|------------------------|---------------------------|
------------------------|-----5-----4------4-----|---------------------------|
--10----10--9------9----|------------------------|---------------------------|
------------------------|--0-----0------------0--|--7----0--8----0-0-3-2-3-2-|
                                                                              
------------------------|---------------------------|------------------------|
-----5-----4------4-----|---------------------------|-----5-----4------4-----|
------------------------|---------------------------|------------------------|
--0-----0------------0--|--7----0--8----0-0-3-2-3-2-|--0-----0------------0--|
                                                 
---------------------------|------------------------|
---------------------------|-----5-----4------4-----|
---------------------------|------------------------|
--7----0--8----0-0-3-2-3-2-|--0-----0------------0--|
                                                            
---------------------------|-------------------------------|
---------------------------|-------------------------------|
---------------------------|--7------------8---------------|
--7----0--8----0-0-3-2-3-2-|-----0-0-0-0-0-----0-0-0-0-0-0-|
                                                                   
---------------------------------|--------------------------------|
---------------------------------|--------------------------------|
--7------------8----12-10--8-10--|--7------------8---------10-9-7-|
-----0-0-0-0-0----0--------------|-----0-0-0-0-0-----0-0-0--------|
                                                             
---------------------------------|-------------------------------|
---------------------------------|-------------------------------|
--7------------8----12-10--8-10--|--7------------8---------------|
-----0-0-0-0-0----0--------------|-----0-0-0-0-0-----0-0-0-0-0-0-|
                                                              
---------------------------------|--------------------------------|
---------------------------------|--------------------------------|
--7------------8----12-10--8-10--|--7------------8---------10-9-7-|
-----0-0-0-0-0----0--------------|-----0-0-0-0-0-----0-0-0--------|
                                                                 
---------------------------------|-----------------------------------|
---------------------------------|-----------------------------------|
--7------------8----12-10--8-10--|--7--------------8-----------------|
-----0-0-0-0-0----0--------------|-----0-0-0-0-0-0-----0-0-0-0-0-0-0-|
                                                                       
-----------------------------------|----------------------------------|
-----------------------------------|----------------------------------|
--7--------------8----12-10--8-10--|--7--------------8---------10-9-7-|
-----0-0-0-0-0-0----0--------------|-----0-0-0-0-0-0-----0-0-0--------|
                                                                        
-----------------------------------|-----------------------------------|
-----------------------------------|-----------------------------------|
--7--------------8----12-10--8-10--|--7--------------8-----------------|
-----0-0-0-0-0-0----0--------------|-----0-0-0-0-0-0-----0-0-0-0-0-0-0-|
                                                                 
-----------------------------------|----------------------------------|
-----------------------------------|----------------------------------|
--7--------------8----12-10--8-10--|--7--------------8---------10-9-7-|
-----0-0-0-0-0-0----0--------------|-----0-0-0-0-0-0-----0-0-0--------|
                                                                       
-----------------------------------|-------------------|------------------|
-----------------------------------|-------------------|------------------|
--7--------------8----12-10--8-10--|--7----------------|------------------|
-----0-0-0-0-0-0----0--------------|-------------------|------------------|
                                                               
------------------|-----------------------|-------------------|
------------------|-----------------------|-------------------|
------------------|--3--------------------|-------------------|
------------------|---------2----3--2--0--|--0----------------|
                                                          
------------------|------------------|------------------||
------------------|------------------|------------------||
------------------|------------------|------------------||
------------------|------------------|------------------||
Composição de Randall Shawver
Colaboração e revisão:
  • Taino Vieira
31 exibições

0 comentários

Ver todos os comentários

Conseguiu tocar?

0 Tocaram 0 Ainda não

Grave um vídeo tocando Curse the Sky e nos envie!

00:00 / 00:00
outros vídeos desta música
repetir qualidade Automático
Outros vídeos desta música
00:00 / 00:00
Automático

Cifra Club Pro

Aproveite o Cifra Club com benefícios exclusivos e sem anúncios
Cifra Club Pro
Aproveite o Cifra Club com benefícios exclusivos e sem anúncios
OK