Cifra Club

Aprenda

Dante's Inferno

Iced Earth

Tab de baixo: Principal
Tune down

F#||-------------------|-------------------|-------------------|
C#||-------------------|-------------------|-------------------|
G#||--7----------------|----------------7--|--6----------------|
D#||-------------------|-------------------|-------------------|
                                                                               
------------------|-------------------|-------------------|-------------------|
------------------|-------------------|-------------------|-------------------|
------------------|--7----------------|----------------7--|--6----------------|
------------------|-------------------|-------------------|-------------------|
                                                                               
------------------|-------------------|-------------------|-------------------|
------------------|-------------------|-------------------|-------------------|
------------------|--7----------------|----------------7--|--6----------------|
------------------|--0----------------|-------------------|-------------------|
                                                                               
------------------|-------------------|-------------------|-------------------|
------------------|-------------------|-------------------|-------------------|
------------------|--7----------------|----------------7--|--6----------------|
------------------|--0----------------|-------------------|-------------------|
                                                                               
------------------|-------------------|-------------------|-------------------|
------------------|-------------------|-------------------|-------------------|
------------------|--7----------------|----------------7--|--6----------------|
------------------|--0----------------|-------------------|-------------------|
                                                                         
------------------|-------------------|-------------------|-------------------|
------------------|-------------------|-------------------|-------------------|
------------------|--7----------------|----------------7--|--6----------------|
------------------|--0----------------|-------------------|-------------------|
                                                                    
------------------|-------------------|------------------|-------------------|
------------------|-------------------|------------------|-------------------|
------------------|--5----------------|------------------|--3----------------|
------------------|-------------------|------------------|-------------------|
                                                                               
-------------------|-------------------|------------------|-------------------|
-------------------|-------------------|------------------|-------------------|
----------------3--|--5----------------|------------------|--3----------------|
-------------------|-------------------|------------------|-------------------|
                                                                            
-------------------|-------------------|------------------|-------------------|
-------------------|-------------------|------------------|-------------------|
----------------3--|--5----------------|------------------|--3----------------|
-------------------|-------------------|------------------|-------------------|
                                                                               
-------------------|-------------------|------------------|-------------------|
-------------------|-------------------|------------------|-------------------|
----------------3--|--5----------------|------------------|--3----------------|
-------------------|-------------------|------------------|-------------------|
                                                                               
-------------------|-------------------|------------------|-------------------|
-------------------|-------------------|------------------|-------------------|
----------------3--|--5----------------|------------------|--3----------------|
-------------------|-------------------|------------------|-------------------|
                                                                                
-------------------|-------------------|-------------------|-------------------|
-------------------|-------------------|-------------------|-------------------|
----------------3--|--7----------------|----------------7--|--6----------------|
-------------------|--0----------------|-------------------|-------------------|
                                                                               
------------------|-------------------|-------------------|-------------------|
------------------|-------------------|-------------------|-------------------|
------------------|--7----------------|----------------7--|--6----------------|
------------------|--0----------------|-------------------|-------------------|
                                                                               
------------------|-------------------|-------------------|-------------------|
------------------|-------------------|-------------------|-------------------|
------------------|--7----------------|----------------7--|--6----------------|
------------------|--0----------------|-------------------|-------------------|
                                                                               
------------------|-------------------|-------------------|-------------------|
------------------|-------------------|-------------------|-------------------|
------------------|--7----------------|----------------7--|--6----------------|
------------------|--0----------------|-------------------|-------------------|
                                                                               
------------------|-------------------|-------------------|-------------------|
------------------|-------------------|-------------------|-------------------|
------------------|--7----------------|----------------7--|--6----------------|
------------------|--0----------------|-------------------|-------------------|
                                                              
------------------|---------------------|--------------------|
------------------|---------------------|--------------------|
------------------|--7----------7----7--|------------7----6--|
------------------|--0----------0----0--|------------0-------|
                                                              
--------------------|------------------|---------------------|
--------------------|------------------|---------------------|
------------6----6--|------------------|--7----------7----7--|
--------------------|------------------|--0----------0----0--|
                                                             
--------------------|--------------------|------------------|
--------------------|--------------------|------------------|
------------7----6--|------------6----6--|------------------|
------------0-------|--------------------|------------------|
                                                                
---------------------|--------------------|--------------------|
---------------------|--------------------|--------------------|
--7----------7----7--|------------7----6--|------------6----6--|
--0----------0----0--|------------0-------|--------------------|
                                                              
------------------|---------------------|--------------------|
------------------|---------------------|--------------------|
------------------|--7----------7----7--|------------7----6--|
------------------|--0----------0----0--|------------0-------|
                                                            
--------------------|------------------|-------------------|
--------------------|------------------|-------------------|
------------6----6--|------------------|-------------------|
--------------------|------------------|--0----------------|
                                                           
---------------------------||-----------------------------|
---------------------------||*----------------------------|
--5--2-2-5----------3-3-0--||*--5h-7----------------------|
------------1----1---------||---------0--0-0-0--0--0-0-0--|
                                                      
-----------------------------|----------------------------|
-----------------------------|----------------------------|
-----------------------------|--5h-7----------------------|
--0--0-0-0--0--0-0-0--0-0-0--|--------0--0-0-0--0--0-0-0--|
                                                        
----------------------------||-------------------------|
---------------------------*||-------------------------|
--5--2-2-5----------3-3-0--*||-------------------------|
------------1----1----------||--3-3-3--3----3--3--3----|
                                                                                
-------------------------|-------------------------|---------------------------|
-------------------------|-------------------------|---------------------------|
-------------------------|-------------------------|---------------------------|
--3-3-3--3----3--3--3----|--3-3-3--3----3--3--3----|--3-3-3--3----3--3--3--3-3-|
                                                       
|-----------------------------|---------------------------|
|*----------------------------|---------------------------|
|*--5h-7----------------------|--5--2-2-5----------3-3-0--|
|---------0--0-0-0--0--0-0-0--|------------1----1---------|

                                                           3x
----------------------------|------------------------------||
----------------------------|-----------------------------*||
--5h-7----------------------|-----------------------------*||
--------0--0-0-0--0--0-0-0--|--0--0-0-0--0--0-0-0--0-0-0---||
                                                                       
-------------------------|-------------------------|-------------------------|
-------------------------|-------------------------|-------------------------|
-------------------------|-------------------------|-------------------------|
--3-3-3--3----3--3--3----|--3-3-3--3----3--3--3----|--3-3-3--3----3--3--3----|
                                                           
---------------------------||-----------------------------|
---------------------------||*----------------------------|
---------------------------||*--5h-7----------------------|
--3-3-3--3----3--3--3--3-3-||---------0--0-0-0--0--0-0-0--|
                                                    
---------------------------|----------------------------|
---------------------------|----------------------------|
--5--2-2-5----------3-3-0--|--5h-7----------------------|
------------1----1---------|--------0--0-0-0--0--0-0-0--|

                              4x                          
------------------------------||-------------------------|
-----------------------------*||-------------------------|
-----------------------------*||-------------------------|
--0--0-0-0--0--0-0-0--0-0-0---||--3-3-3--3----3--3--3----|
                                                                            
-------------------------|-------------------------|---------------------------|
-------------------------|-------------------------|---------------------------|
-------------------------|-------------------------|---------------------------|
--3-3-3--3----3--3--3----|--3-3-3--3----3--3--3----|--3-3-3--3----3--3--3--3-3-|
                                                                       
---------------------|--------------------------|---------------------|
---------------------|--------------------------|---------------------|
---------------2--2--|--------5--2--2--2--0-----|---------------3--3--|
--0------------------|--1--0-----------------1--|--1------------------|
                                                                            
--------------------------|---------------------|--------------------------|
--------------------------|---------------------|--------------------------|
--------5-----5-----5-----|---------------2--2--|--------5--2--2--2--0-----|
--1--0-----1-----1-----1--|--0------------------|--1--0-----------------1--|
                                                                       
---------------------|--------------------------|---------------------|
---------------------|--------------------------|---------------------|
---------------3--3--|--------5-----5-----5-----|---------------2--2--|
--1------------------|--1--0-----1-----1-----1--|--0------------------|
                                                                      
--------------------------|---------------------|--------------------------|
--------------------------|---------------------|--------------------------|
--------5--2--2--2--0-----|---------------3--3--|--------5-----5-----5-----|
--1--0-----------------1--|--1------------------|--1--0-----1-----1-----1--|
                                                                
---------------------|--------------------------|---------------------|
---------------------|--------------------------|---------------------|
---------------2--2--|--------5--2--2--2--0-----|---------------3--3--|
--0------------------|--1--0-----------------1--|--1------------------|
                                                                      
--------------------------|---------------------|--------------------------|
--------------------------|---------------------|--------------------------|
--------5-----5-----5-----|---------------2--2--|--------5--2--2--2--0-----|
--1--0-----1-----1-----1--|--0------------------|--1--0-----------------1--|
                                                                       
---------------------|--------------------------|---------------------|
---------------------|--------------------------|---------------------|
---------------3--3--|--------5-----5-----5-----|---------------2--2--|
--1------------------|--1--0-----1-----1-----1--|--0------------------|
                                                                            
--------------------------|---------------------|--------------------------|
--------------------------|---------------------|--------------------------|
--------5--2--2--2--0-----|---------------3--3--|--------5-----5-----5-----|
--1--0-----------------1--|--1------------------|--1--0-----1-----1-----1--|
                                                                  
---------------------|--------------------------|---------------------|
---------------------|--------------------------|---------------------|
---------------2--2--|--------5--2--2--2--0-----|---------------3--3--|
--0------------------|--1--0-----------------1--|--1------------------|
                                                                       
--------------------------|---------------------|--------------------------|
--------------------------|---------------------|--------------------------|
--------5-----5-----5-----|---------------2--2--|--------5--2--2--2--0-----|
--1--0-----1-----1-----1--|--0------------------|--1--0-----------------1--|
                                                                           
---------------------|--------------------------||-----------------------------|
---------------------|--------------------------||*----------------------------|
---------------3--3--|--------5-----5-----5-----||*--5h-7----------------------|
--1------------------|--1--0-----1-----1-----1--||---------0--0-0-0--0--0-0-0--|
                                                      
-----------------------------|----------------------------|
-----------------------------|----------------------------|
-----------------------------|--5h-7----------------------|
--0--0-0-0--0--0-0-0--0-0-0--|--------0--0-0-0--0--0-0-0--|

                            4x                          
----------------------------||-------------------------|
---------------------------*||-------------------------|
--5--2-2-5----------3-3-0--*||-------------------------|
------------1----1----------||--3-3-3--3----3--3--3----|
                                                                                
-------------------------|-------------------------|---------------------------|
-------------------------|-------------------------|---------------------------|
-------------------------|-------------------------|---------------------------|
--3-3-3--3----3--3--3----|--3-3-3--3----3--3--3----|--3-3-3--3----3--3--3--3-3-|
                                                             
|----------------------|--------------------------|---------------------|
|*---------------------|--------------------------|---------------------|
|*---------------2--2--|--------5--2--2--2--0-----|---------------3--3--|
|---0------------------|--1--0-----------------1--|--1------------------|
                                                
---------------------------||---------------------------|
--------------------------*||---------------------------|
--------5-----5-----5-----*||---------------------------|
--1--0-----1-----1-----1---||--0--0-0-0--0--3/-2--0--0--|
                                                
--------------------------|---------------------------|
--------------------------|---------------------------|
--------------------------|---------------------------|
--2/-1--0--0--0--0--0--1--|--0--0-0-0--0--3/-2--0--0--|
                                                    
--------------------------|---------------------------|
--------------------------|---------------------------|
--------------------------|---------------------------|
--2/-1--0--0--0--0--2--0--|--0--0-0-0--0--3/-2--0--0--|
                                                       
--------------------------|---------------------------|
--------------------------|---------------------------|
--------------------------|---------------------------|
--2/-1--0--0--0--0--0--1--|--0--0-0-0--0--3/-2--0--0--|
                                                 
--------------------------|---------------------------|
--------------------------|---------------------------|
--------------------------|---------------------------|
--2/-1--0--0--0--0--2--0--|--0--0-0-0--0--3/-2--0--0--|
                                                       
--------------------------|---------------------------|
--------------------------|---------------------------|
--------------------------|---------------------------|
--2/-1--0--0--0--0--0--1--|--0--0-0-0--0--3/-2--0--0--|
                                                 
--------------------------|---------------------------|
--------------------------|---------------------------|
--------------------------|---------------------------|
--2/-1--0--0--0--0--2--0--|--0--0-0-0--0--3/-2--0--0--|
                                                       
--------------------------|---------------------------|
--------------------------|---------------------------|
--------------------------|---------------------------|
--2/-1--0--0--0--0--0--1--|--0--0-0-0--0--3/-2--0--0--|
                                                       
--------------------------|---------------------------|
--------------------------|---------------------------|
--------------------------|---------------------------|
--2/-1--0--0--0--0--2--0--|--0--0-0-0--0--3/-2--0--0--|
                                                       
--------------------------|---------------------------|
--------------------------|---------------------------|
--------------------------|---------------------------|
--2/-1--0--0--0--0--0--1--|--0--0-0-0--0--3/-2--0--0--|
                                                         
--------------------------||----------------------------|
--------------------------||*---------------------------|
--------------------------||*--7--7-7-7--7--8--7--5/-7--|
--2/-1--0--0--0--0--2--0--||----------------------------|
                                                   
---------------------------|----------------------------|
---------------------------|----------------------------|
--7--7-7-7--7--8--7--10----|--8--8-8-8--8--10--8--7/-8--|
---------------------------|----------------------------|
                                                       
--------------------------|---------------------------|
--------------------------|---------------------------|
--5--5-5-5--5--7--5-------|--7--7-7-7--7--8--7--5/-7--|
---------------------6----|---------------------------|
                                                     
---------------------------|----------------------------|
---------------------------|----------------------------|
--7--7-7-7--7--8--7--10----|--8--8-8-8--8--10--8--7/-8--|
---------------------------|----------------------------|
                                                           
---------------------------||----------------------------------|
--------------------------*||----------------------------------|
--5--5-5-5--5--7--5-------*||----------------------------------|
---------------------6-----||--0--0--0--0--0--0--0----0--0--0--|
                                                          
------------------------------|----------------------------------|
------------------------------|----------------------------------|
------------------------------|----------------------------------|
--0--0--0--0----0--0--0--3----|--0--0--0--0--0--0--0----0--0--0--|
                                                                 
------------------------------|----------------------------------|
------------------------------|----------------------------------|
------------------------------|--1--1--1--1--1--1--1----0--0--0--|
--0--0--0--0----0--0--0--3----|----------------------------------|
                                                           
------------------------------|----------------------------------|
------------------------------|----------------------------------|
--0--0--0--0----0--0--0--0----|--1--1--1--1--1--1--1----0--0--0--|
------------------------------|----------------------------------|
                                                             
------------------------------|----------------------------------|
------------------------------|----------------------------------|
--0--0--0--0----0--0--0--0----|----------------------------------|
------------------------------|--0--0--0--0--0--0--0----0--0--0--|
                                                                  
------------------------------|----------------------------------|
------------------------------|----------------------------------|
------------------------------|----------------------------------|
--0--0--0--0----0--0--0--3----|--0--0--0--0--0--0--0----0--0--0--|
                                                                  
------------------------------|----------------------------------|
------------------------------|----------------------------------|
------------------------------|--1--1--1--1--1--1--1----0--0--0--|
--0--0--0--0----0--0--0--3----|----------------------------------|
                                                                  
------------------------------|----------------------------------|
------------------------------|----------------------------------|
--0--0--0--0----0--0--0--0----|--1--1--1--1--1--1--1----0--0--0--|
------------------------------|----------------------------------|
                                                                  
------------------------------|----------------------------------|
------------------------------|----------------------------------|
--0--0--0--0----0--0--0--0----|----------------------------------|
------------------------------|--0--0--0--0--0--0--0----0--0--0--|
                                                           
------------------------------|----------------------------------|
------------------------------|----------------------------------|
------------------------------|----------------------------------|
--0--0--0--0----0--0--0--3----|--0--0--0--0--0--0--0----0--0--0--|
                                                             
------------------------------|----------------------------------|
------------------------------|----------------------------------|
------------------------------|--1--1--1--1--1--1--1----0--0--0--|
--0--0--0--0----0--0--0--3----|----------------------------------|
                                                              
------------------------------|----------------------------------|
------------------------------|----------------------------------|
--0--0--0--0----0--0--0--0----|--1--1--1--1--1--1--1----0--0--0--|
------------------------------|----------------------------------|

                                                           
------------------------------|----------------------------------|
------------------------------|----------------------------------|
--0--0--0--0----0--0--0--0----|----------------------------------|
------------------------------|--0--0--0--0--0--0--0----0--0--0--|
                                                                  
------------------------------|----------------------------------|
------------------------------|----------------------------------|
------------------------------|----------------------------------|
--0--0--0--0----0--0--0--3----|--0--0--0--0--0--0--0----0--0--0--|
                                                                  
------------------------------|----------------------------------|
------------------------------|----------------------------------|
------------------------------|--1--1--1--1--1--1--1----0--0--0--|
--0--0--0--0----0--0--0--3----|----------------------------------|
                                                              
------------------------------|----------------------------------|
------------------------------|----------------------------------|
--0--0--0--0----0--0--0--0----|--1--1--1--1--1--1--1----0--0--0--|
------------------------------|----------------------------------|
                                                                  
------------------------------|-------------------|-------------------|
------------------------------|-------------------|-------------------|
--0--0--0--0----0--0--0--0----|-------------------|-------------------|
------------------------------|--0----------------|--0----------------|
                                                                               
-------------------|------------------|-------------------|-------------------|
-------------------|------------------|-------------------|-------------------|
--7----------------|------------------|--7----------------|--7----------------|
-------------------|------------------|-------------------|-------------------|
                                                          
----------------7----|--------------------|-------------------|
-----------7---------|--------------------|-------------------|
--5------------------|--5--------5--------|--3----------------|
---------------------|--------------------|-------------------|
                                                                         
--------------------|-------------------------|-------------------------|
--------------------|--------2h-3----2----5-3-|--------2h-3----2----5-3-|
--3--------3--------|-----2-------------------|-----2-------------------|
--------------------|--0----------------------|--0----------------------|
                                                              
-------------------|-------------------|----------------7----|
-------------------|-------------------|-----------7---------|
--7----------------|--7----------------|--5------------------|
-------------------|-------------------|---------------------|
                                                              
--------------------|-------------------|--------------------|
--------------------|-------------------|--------------------|
--5--------5--------|--3----------------|--3--------3--------|
--------------------|-------------------|--------------------|
                                                                        
-------------------------|-------------------------|-------------------|
--------2h-3----2----5-3-|--------2h-3----2----5-3-|-------------------|
-----2-------------------|-----2-------------------|--7----------------|
--0----------------------|--0----------------------|-------------------|
                                                               
-------------------|----------------7----|--------------------|
-------------------|-----------7---------|--------------------|
--7----------------|--5------------------|--5--------5--------|
-------------------|---------------------|--------------------|
                                                                   
-------------------|--------------------|-------------------------|
-------------------|--------------------|--------2h-3----2----5-3-|
--3----------------|--3--------3--------|-----2-------------------|
-------------------|--------------------|--0----------------------|
                                                                              
-------------------------|-------------------------|-------------------------|
--------2h-3----2----5-3-|--------2h-3----2----5-3-|--------2h-3----2----5-3-|
-----2-------------------|-----2-------------------|-----2-------------------|
--0----------------------|--0----------------------|--0----------------------|
                                                                      
-------------------|------|------|------|--------------------|------|------|
-------------------|------|------|------|--------------------|------|------|
-------------------|------|------|------|--------------------|------|------|
--3----------------|------|------|------|--3--3--------------|------|------|
                                                                             
----------------------------|-------------------|------|--------------------|
----------------------------|-------------------|------|--------------------|
----------------------------|-------------------|------|--------------------|
--6-6-6-6-6----5-5-5-5-5----|--3----------------|------|--3--3--------------|
                                                        
------|--------------------|------|--------------------|
------|--------------------|------|--------------------|
------|--------------------|------|--------------------|
------|--3--3--------------|------|--3--3--------------|
                                                   
----------------------------|---------------------------|
----------------------------|---------------------------|
----------------------------|---------------------------|
--6-6-6-6-6----5-5-5-5-5----|--3----3--3-3-3--3--3-3-3--|
                                                           
-----------------------------|----------------------------|
-----------------------------|----------------------------|
-----------------------------|--5h-6----------------------|
--3--3-3-3--3--3-3-3--3-3-3--|--------3--3-3-3--3--3-3-3--|
                                                           
-----------------------------|----------------------------|
-----------------------------|----------------------------|
-----------------------------|----------------------------|
--3--3-3-3--3--3-3-3--3-3-3--|--0h-3--3--3-3-3--3--3-3-3--|

-----------------------------|----------------------------|
-----------------------------|----------------------------|
-----------------------------|--5h-6----------------------|
--3--3-3-3--3--3-3-3--3-3-3--|--------3--3-3-3--3--3-3-3--|
                                                   
----------------------------|---------------------------|
----------------------------|---------------------------|
----------------------------|---------------------------|
--6-6-6-6-6----5-5-5-5-5----|--3----3--3-3-3--3--3-3-3--|
                                                      
-----------------------------|----------------------------|
-----------------------------|----------------------------|
-----------------------------|--5h-6----------------------|
--3--3-3-3--3--3-3-3--3-3-3--|--------3--3-3-3--3--3-3-3--|
                                                       
-----------------------------|----------------------------|
-----------------------------|----------------------------|
-----------------------------|----------------------------|
--3--3-3-3--3--3-3-3--3-3-3--|--0h-3--3--3-3-3--3--3-3-3--|
                                                       
-----------------------------|----------------------------|
-----------------------------|----------------------------|
-----------------------------|--5h-6----------------------|
--3--3-3-3--3--3-3-3--3-3-3--|--------3--3-3-3--3--3-3-3--|
                                                                             
----------------------------||------------------------|---------------------|
----------------------------||*-----------------------|---------------------|
----------------------------||*-----------------------|---------------------|
--6-6-6-6-6----5-5-5-5-5----||---3--------3--2--3--5--|----------5--3--5----|
                                                                      
-----------------------|---------------------|-----------------------|
-----------------------|---------------------|-----------------------|
--------------------3--|---------------------|-----------------------|
--3--------3--2--3-----|----------6--5--6----|--3--------3--2--3--5--|
                                                               
---------------------|-----------------------|-------------------||
---------------------|-----------------------|------------------*||
---------------------|-----------------------|------------------*||
----------5--3--5----|--1--------1--3--5--3--|-------------------||
                                                                  
------------------------|---------------------|-----------------------|
*-----------------------|---------------------|-----------------------|
*-----------------------|---------------------|--------------------3--|
---3--------3--2--3--5--|----------5--3--5----|--3--------3--2--3-----|
                                                               
---------------------|-----------------------|---------------------|
---------------------|-----------------------|---------------------|
---------------------|-----------------------|---------------------|
----------6--5--6----|--3--------3--2--3--5--|----------5--3--5----|
                                                                 
-----------------------|-------------------||------------------------|
-----------------------|------------------*||*-----------------------|
-----------------------|------------------*||*-----------------------|
--1--------1--3--5--3--|-------------------||---3----------3--3-3-3--|
                                                                         
------------------------|----------------------|------------------------|
------------------------|----------------------|------------------------|
------------------------|----------------------|------------------------|
--5----3----2----3------|------------3--3-3-3--|--5----3----3----2------|
                                                              
----------------------|------------------------|----------------------|
----------------------|------------------------|----------------------|
----------------------|------------------------|----------------------|
------------2--2-2-2--|--5----3----3----2------|------------2--2-2-2--|
                                             
-------------------------||---------------------------|
------------------------*||*--------------------------|
------------------------*||*-----------------------6--|
--5----3----2----3-------||---3----3--3-3-3--3--3-----|
                                                        
----------------------------|--------------------------|
----------------------------|--------------------------|
-----5-----3------------3h5-|-----------------------6--|
--3-----3-----3--3--3-3-----|--3----3--3-3-3--3--3-----|
                                                 
----------------------------|--------------------------|
----------------------------|--------------------------|
-----5-----3------------3h5-|-----------------------5--|
--3-----3-----3--3--3-3-----|--2----2--2-2-2--2--2-----|
                                              
----------------------------|--------------------------|
----------------------------|--------------------------|
-----4-----2------------2h4-|-----------------------5--|
--2-----2-----2--2--2-2-----|--2----2--2-2-2--2--2-----|
                                                 
-----------------------------||------------------------|
----------------------------*||*-----------------------|
-----4-----2------------2h4-*||*-----------------------|
--2-----2-----2--2--2-2------||---3----------3--3-3-3--|
                                                                         
------------------------|----------------------|------------------------|
------------------------|----------------------|------------------------|
------------------------|----------------------|------------------------|
--5----3----2----3------|------------3--3-3-3--|--5----3----3----2------|

----------------------|------------------------|----------------------|
----------------------|------------------------|----------------------|
----------------------|------------------------|----------------------|
------------2--2-2-2--|--5----3----3----2------|------------2--2-2-2--|
                                                 
-------------------------||---------------------------|
------------------------*||*--------------------------|
------------------------*||*-----------------------6--|
--5----3----2----3-------||---3----3--3-3-3--3--3-----|

----------------------------|--------------------------|
----------------------------|--------------------------|
-----5-----3------------3h5-|-----------------------6--|
--3-----3-----3--3--3-3-----|--3----3--3-3-3--3--3-----|
                                                        
----------------------------|--------------------------|
----------------------------|--------------------------|
-----5-----3------------3h5-|-----------------------5--|
--3-----3-----3--3--3-3-----|--2----2--2-2-2--2--2-----|
                                                        
----------------------------|--------------------------|
----------------------------|--------------------------|
-----4-----2------------2h4-|-----------------------5--|
--2-----2-----2--2--2-2-----|--2----2--2-2-2--2--2-----|
                                                                       
-----------------------------||--------------------|------------------|
----------------------------*||*-------------------|------------------|
-----4-----2------------2h4-*||*--5----------------|------------------|
--2-----2-----2--2--2-2------||--------------------|------------------|
                                                       
-------------------|-------------------||-------------------|
-------------------|------------------*||-------------------|
--4----------------|------------------*||--5----------------|
-------------------|-------------------||-------------------|
                                                             
--------------------|-------------------|-------------------|
--------------------|-------------------|-------------------|
--5----------5------|--4----------------|--4----------------|
--------------------|-------------------|-------------------|
                                                             
-------------------|--------------------|-------------------|
-------------------|--------------------|-------------------|
--5----------------|--5----------5------|--4----------------|
-------------------|--------------------|-------------------|
                                                         
-------------------||-----------------------------------|
-------------------||*----------------------------------|
--4----------------||*--5-5-5-5-5-5-5-5-5-5-5-5-5-5-5-5-|
-------------------||-----------------------------------
                                                                    
----------------------------------|----------------------------------|
----------------------------------|----------------------------------|
--5-5-5-5-5-5-5-5-5-5-5-5-5-5-5-5-|--4-4-4-4-4-4-4-4-4-4-4-4-4-4-4-4-|
----------------------------------|----------------------------------|

                                   3x                      
-----------------------------------||---------------------|
----------------------------------*||---------------------|
--4-4-4-4-4-4-4-4-4-4-4-4-4-4-4-4-*||---------------------|
-----------------------------------||--3----5----2--------|
                                                                            
---------------------|----------------------|------------------------------|
---------------------|----------------------|------------------------------|
---------------------|----------------------|------------------------------|
--3----5----2--------|--3----5----2----3----|--0----0--0--1--0----0--0--0--|
                                                                 
---------------------|---------------------|----------------------|
---------------------|---------------------|----------------------|
---------------------|---------------------|----------------------|
--3----5----2--------|--3----5----2--------|--3----5----2----3----|
                                                                    
-------------------------|------------------|------|---------------|
-------------------------|------------------|------|---------------|
-------------------------|------------------|------|---------------|
--0----0--0--1--0--------|------------------|------|--0------------|
                                                                    
---------------|---------------|------|-------------------|------------------|
---------------|---------------|------|-------------------|------------------|
---------------|---------------|------|--7---7---7--8--5--|--7----7---7---7--|
--0------------|--0------------|------|-------------------|------------------|
                                                             
-------------------|------------------|---------------------|
-----5-------------|------------------|--5------------------|
--8-----7----7---7-|----7--8--5--7----|------9---5----------|
-------------------|------------------|---------------------|
                                                                  
--------------------------------------|--------------------------|
--------------------------------------|--------------------------|
--------------------------------5--5--|--------------------------|
--0--0--0--0--0--0--0--0--1--1--------|--0--0--0--0--0--0--0--0--|
                                              
--------------------------|--------------------------|
--------------------------|--------------------------|
--------------------------|--------------------------|
--0--0--0--0--1--1--3--3--|--0--0--0--0--0--0--0--0--|
                                                                            
--------------------------|--------------------------|---------------------|
--------------------------|--------------------------|---------------------|
--------------------5--5--|--------------------------|--------5------------|
--0--0--0--0--1--1--------|--0--0--0--0--3--3--3--2--|--2--2---------------|
                                                                 
|---------------------------------------|--------------------------|
|*--------------------------------------|--------------------------|
|*--------------------------------5--5--|--------------------------|
|---0--0--0--0--0--0--0--0--1--1--------|--0--0--0--0--0--0--0--0--|
                                                      
--------------------------|--------------------------|
--------------------------|--------------------------|
--------------------------|--------------------------|
--0--0--0--0--1--1--3--3--|--0--0--0--0--0--0--0--0--|
                                                                         
--------------------------|--------------------------|----------------------||
--------------------------|--------------------------|---------------------*||
--------------------5--5--|--------------------------|--------5------------*||
--0--0--0--0--1--1--------|--0--0--0--0--3--3--3--2--|--2--2----------------||
                                                      
--------------------------|--------------------------|
--------------------------|--------------------------|
--2--------2--------2-----|--3--------3--------3-----|
-----0--0-----0--0-----0--|-----0--0-----0--0-----0--|
                                                                      
--------------------------|----------------------|-------------------------|
--------------------------|----------------------|-------------------------|
--0--------0--------0-----|--2--------2----------|-------8--------8--------|
-----0--0-----0--0-----0--|-----0--0-------------|--6-------6--6-----6--6--|
                                                      
--------------------------|--------------------------|
--7-----------------------|--------------------------|
-----------8--------7h-8--|--------8--------8--------|
-----6--6-----6--6--------|--6--6-----6--6-----6--6--|
                                                                                
--------------------------|--------------------------|-------------------------|
--7-----------------------|--------------------------|-------------------------|
-----------8--------7h-8--|--------2--------2--------|--3--------3--------3----|
-----6--6-----6--6--------|--0--0-----0--0-----0--0--|-----0--0-----0--0-------|
                                                                               
--------------------------|-------------------------|-------------------------|
--------------------------|-------------------------|-------------------------|
--------0--------0--------|--2--------2--------2----|-------8--------8--------|
--0--0-----0--0-----0--0--|-----0--0-----0--0-------|--6-------6--6-----6--6--|
                                                      
--------------------------|--------------------------|
--7-----------------------|--------------------------|
-----------8--------7h-8--|--------8--------8--------|
-----6--6-----6--6--------|--6--6-----6--6-----6--6--|
                                                       
--------------------------||--------------------------------|
--7-----------------------||*-------------------------------|
-----------8--------7h-8--||*--5--5-5-5-5-5--5-5-5-5-6--6-6-|
-----6--6-----6--6--------||--------------------------------|
                                                                
-------------------------------|-------------------------------|
-------------------------------|-------------------------------|
--6-6-3--3-3-3-3-5--5-5-5--5-5-|--5--5-5-5-5-5--5-5-5-5-6--6-6-|
-------------------------------|-------------------------------|

                                              3x                     
-------------------------------|------|-------||--------------------|
-------------------------------|------|------*||*-------------------|
--6-6-3--3-3-3-3-5--5-5-5--5-5-|------|------*||*--5----------------|
-------------------------------|------|-------||--------------------|

                                                          2x                    
------------------|-------------------|-------------------||-------------------|
------------------|-------------------|------------------*||-------------------|
------------------|--6----------------|------------------*||--5----------------|
------------------|-------------------|-------------------||-------------------|
                                                                         
------------------|-------------------|------------------||--------------------|
------------------|-------------------|------------------||*-------------------|
------------------|--6----------------|------------------||*--3----------------|
------------------|-------------------|------------------||--------------------|
                                                            
------------------|-------------------|-------------------||
------------------|-------------------|------------------*||
------------------|--2----------------|------------------*||
------------------|-------------------|-------------------||
                                                            
--------------------|------------------|-------------------|
*-------------------|------------------|-------------------|
*-------------------|------------------|-------------------|
---0----------------|------------------|--1----------------|

                   3x                               
-------------------||------------------------------|
------------------*||*-----------------------------|
------------------*||*-----------------------------|
-------------------||---0--0-0-0--0--0-0-0--0--0-0-|
                                                              
-------------------------------|-----------------------------|
-------------------------------|-----------------------------|
-------------------------------|-----------------------------|
--0--0--0-0-0--0-0-0-0-0-0-0-0-|--0--0-0-0--0--0-0-0--0--0-0-|

                                7x                               
--------------------------------||------------------------------|
-------------------------------*||*-----------------------------|
-------------------------------*||*-----------------------------|
--0--0--0-0-0--0-0-0-0-0-0-0-0--||---0--0-0-0--0--0-0-0--0--0-0-|
                                                          
---------------------------|-----------------------------|
---------------------------|-----------------------------|
---------------------------|-----------------------------|
--0--0--0-0-0--0--0--0--0--|--0--0-0-0--0--0-0-0--0--0-0-|
                                                 
---------------------------|-----------------------------|
---------------------------|-----------------------------|
---------------------------|-----------------------------|
--0--0--0-0-0--0--0--0--0--|--0--0-0-0--0--0-0-0--0--0-0-|
                                                         
---------------------------|-----------------------------|
---------------------------|-----------------------------|
---------------------------|-----------------------------|
--0--0--0-0-0--0--0--0--0--|--0--0-0-0--0--0-0-0--0--0-0-|
                                                 
---------------------------|-----------------------------|
---------------------------|-----------------------------|
---------------------------|-----------------------------|
--0--0--0-0-0--0--0--0--0--|--0--0-0-0--0--0-0-0--0--0-0-|
                                                          
---------------------------|-----------------------------|
---------------------------|-----------------------------|
---------------------------|-----------------------------|
--0--0--0-0-0--0--0--0--0--|--0--0-0-0--0--0-0-0--0--0-0-|
                                                       
---------------------------|--------------------------|
---------------------------|--------------------------|
---------------------------|--------------------------|
--0--0--0-0-0--0--0--0--0--|--0--0--0--0--0--0--0--0--|

                           2x                           
---------------------------||--------------------------|
--------------------------*||*-------------------------|
--------------------------*||*-------------------------|
--0--0--0--0--0--0--0--0---||---1----1--0--0--0--0--0--|
                                                 
--------------------------|-------------------------|
--------------------------|-------------------------|
--------------------------|-------------------------|
--0--0--0--1--0--0--0--1--|--1----1--0--0--0--0--0--|

                          5x                       
--------------------------||----------------------|
-------------------------*||----------------------|
-------------------------*||----------------------|
--1--0--1--0----0--0--0---||--1--1--1--0----------|
                                                             
|--------------------------------|--------------------------|
|*-------------------------------|--------------------------|
|*-------------------------------|--------------------------|
|---0--0-0-0--0--0-0-0-0-0-0-0-0-|--1--0--1--0------0-0-0-0-|

                                                     2x
-----------------------------|-----------------------||
-----------------------------|----------------------*||
--1--1-1-1--1--1-1-1--1-1-1--|----------------------*||
-----------------------------|--1--1--1--0-----------||
                                                    
-------------------------------|--------------------------|
-------------------------------|--------------------------|
-------------------------------|--------------------------|
--0--0-0-0--0--0-0-0-0-0-0-0-0-|--1--0--1--0------0-0-0-0-|
                                                              
-----------------------------||------------------------------|
-----------------------------||*-----------------------------|
--1--1-1-1--1--1-1-1--1-1-1--||*--2---------0---------2------|
-----------------------------||------0-0-0-----0-0-0-----0-0-|
                                                       
----------------------------|-----------------------------|
----------------------------|-----------------------------|
-----0---------2--0-0-0--2--|--3---------0---------3------|
--0-----0-0-0---------------|-----0-0-0-----0-0-0-----0-0-|

----------------------------||-----------------------------|
---------------------------*||-----------------------------|
-----0---------3-----3-----*||--2---------0---------2------|
--0-----0-0-0-----0-----0---||-----0-0-0-----0-0-0-----0-0-|

----------------------------|-----------------------------|
----------------------------|-----------------------------|
-----0---------2--0-0-0--2--|--3---------0---------3------|
--0-----0-0-0---------------|-----0-0-0-----0-0-0-----0-0-|
                                                    
---------------------------|-----------------------------|
---------------------------|-----------------------------|
-----0---------3-----3-----|--2---------0---------2------|
--0-----0-0-0-----0-----0--|-----0-0-0-----0-0-0-----0-0-|
                                                           
----------------------------|-----------------------------|
----------------------------|-----------------------------|
-----0---------2--0-0-0--2--|--3---------0---------3------|
--0-----0-0-0---------------|-----0-0-0-----0-0-0-----0-0-|
                                                          
---------------------------|-----------------------------|
---------------------------|-----------------------------|
-----0---------3-----3-----|--2---------0---------2------|
--0-----0-0-0-----0-----0--|-----0-0-0-----0-0-0-----0-0-|

----------------------------|-----------------------------|
----------------------------|-----------------------------|
-----0---------2--0-0-0--2--|--3---------0---------3------|
--0-----0-0-0---------------|-----0-0-0-----0-0-0-----0-0-|
                                               
---------------------------|-----------------------------|
---------------------------|-----------------------------|
-----0---------3-----3-----|--2---------0---------2------|
--0-----0-0-0-----0-----0--|-----0-0-0-----0-0-0-----0-0-|
                                                           
----------------------------|-----------------------------|
----------------------------|-----------------------------|
-----0---------2--0-0-0--2--|--3---------0---------3------|
--0-----0-0-0---------------|-----0-0-0-----0-0-0-----0-0-|
                                                     
---------------------------|-----------------------------|
---------------------------|-----------------------------|
-----0---------3-----3-----|--2---------0---------2------|
--0-----0-0-0-----0-----0--|-----0-0-0-----0-0-0-----0-0-|
Composição de Jon Schaffer
Colaboração e revisão:
  • Taino Vieira
65 exibições

0 comentários

Ver todos os comentários

Conseguiu tocar?

0 Tocaram 0 Ainda não

Grave um vídeo tocando Dante's Inferno e nos envie!

00:00 / 00:00
outros vídeos desta música
repetir qualidade Automático
Outros vídeos desta música
00:00 / 00:00
Automático

Cifra Club Pro

Aproveite o Cifra Club com benefícios exclusivos e sem anúncios
Cifra Club Pro
Aproveite o Cifra Club com benefícios exclusivos e sem anúncios
OK