Cifra Club

Aprenda

Depths of Hell

Iced Earth

Cifra: Principal (violão e guitarra)
tom: B
Intro until 00:56

Guitar1
E|-----------------------------------------------------------------------|
B|-----------------------------------------------------------------------|
G|-----------------------------------------------------------------------|
D|----2-2-2-4-4-4-5-5-5-5-5-5-5-5-5-5------------------------------------|
A|-----------------------------------------------------------------------|
E|-----------------------------------------------------------------------|
      * * * * * * * * * * * * * * * *
E|-----------------------------------------------------------------------|
B|-----------------------------------------------------------------------|
G|----4-4-4-2-2-2--------------------------------------------------------|
D|---------------5-5-5-5-5-5-5-5-5-5-5-----------------------------------|
A|-----------------------------------------------------------------------|
E|-----------------------------------------------------------------------|
      * * * * * * * * * * * * * * * *

Guitar2 [distortion]
E|--------------------|
B|--------------------|
G|--------------------|
D|-----10-10-10--9----|
A|------8--8--8--7----|
E|--------------------|

00:56
E|-------------------------------||------------------------------|
B|-------------------------------||------------------------------|
G|-------------------------------||------------------------------|
D|-------------------------------||------------------------------|
A|--2----2----2----2-------------||--3----3----3----3-----5-5----|
E|--0-00-0-00-0-00-0-00-0-0-0-0--||--1-11-1-11-1-11-1-11--3-3----|
_________2x_____________________/

E|--------------------------------||----------------------------------------|
B|--------------------------------||----------------------------------------|
G|--------------------------------||----------------------------------------|
D|--------------------------------||----------------------------------------|
A|---2----2----2----2-------------||---5-5-5-5-5---3------------------------|
E|---0-00-0-00-0-00-0-00-0-0-0-0--||---3-3-3-3-3-0-1------------------------|
"From the dephts of hell...." "..."

E|---------------------------||-------------------------------|
B|---------------------------||-------------------------------|
G|---------------------------||-------------------------------|
D|-----------------------5-4-||-------------------------------|
A|-2----2----2----2------3-2-||-5-5-5-5-5---3---5-5-5-5-5---2-|
E|-0-00-0-00-0-00-0-00-------||-3-3-3-3-3-0-1---3-3-3-3-3-0-0-|
_________2x_________________/

E|---------------------||-----------------------------|
B|---------------------||-----------------------------|
G|---------------------||-----------------------------|
D|---------------------||-------------------------5-4-|
A|-5-5-5-5-5---3---5-3-||-2-----2-----2-----2-----3-2-|
E|-3-3-3-3-3-0-1---3-1-||-0-0-0-0-0-0-0-0-0-0-0-0-----|
         
e|-----------------------------||-----------------------------|
B|-----------------------------||-----------------------------|
G|-----------------------------||-----------------------------|
D|-------------------------4-5-||-------------------------5-4-|
A|-3-----3-----3-----3-----2-3-||-2-----2-----2-----2-----3-2-|
E|-1-1-1-1-1-1-1-1-1-1-1-1-----||-0-0-0-0-0-0-0-0-0-0-0-0-----|
      * *   * *   * *   * * 

eb|--------------------------------||----------------------|
Bb|--------------------------------||----------------------|
Gb|--------------------------------||----------------------|
Db|--------------------------------||----------------------|
Ab|-5-5-5-5-5---3----5-5-5-5-5---2-||-5-5-5-5-5---3----5-3-|
Eb|-3-3-3-3-3-0-1----3-3-3-3-3-0-0-||-3-3-3-3-3-0-1----3-1-|

Solo 01:27
E|----------------------------------------------------|
B|----------------------------------------------------|
G|---9/10-10-10/12-12-12/14-14-14/16-16-16/17-16~-----|
D|----------------------------------------------------|
A|----------------------------------------------------|
E|----------------------------------------------------|

E|----------------------------------------------------|
B|----------------------------------------------------|
G|-16/17-17-17/19-19-1917-17-1716-16-1614-14------|
D|----------------------------------------------------|
A|----------------------------------------------------|
E|----------------------------------------------------|

E|----------------------------------------------------|
B|----------------------------------------------------|
G|----4---2-3-2---------------------------------------|
D|---5-5---------------//12-10-9--------10------------|
A|-------------------------------10-10----------------|
E|----------------------------------------------------|

E|------------------------/19-20-22-20-17-19-------------------|
B|-------------------------------------------------------------|
G|-------------------------------------------14-16-17-16-14----|
D|--9.10r9--------------------------------------------------17-|
A|----------12-10-7--7-----------------------------------------|
E|-------------------------------------------------------------|

E|--15-17-19-17---14-51-------19-24-19--------------|
B|-------------------------------------17~~~--------|
G|--------------------------------------------------|
D|--------------------------------------------------|
A|--------------------------------------------------|
E|--------------------------------------------------|

E|-/19-20-22-20--17-19-----------------------|
B|---------------------///--9b10r9--.8-8~~~~-|
G|---------------------///-10b11r10-.9-9-~~~-|
D|-------------------------------------------|
A|-------------------------------------------|
E|-------------------------------------------|

01:49
E|-----------------------------------------------------------------------|
B|-----------------------------------------------------------------------|
G|-----------------------------------------------------------------------|
D|----2-2-2-4-4-4-5-5-5-5-5-5-5-5-5-5------------------------------------|
A|-----------------------------------------------------------------------|
E|-----------------------------------------------------------------------|
      * * * * * * * * * * * * * * * *
E|-----------------------------------------------------------------------|
B|-----------------------------------------------------------------------|
G|----4-4-4-2-2-2--------------------------------------------------------|
D|---------------5-5-5-5-5-5-5-5-5-5-5-----------------------------------|
A|-----------------------------------------------------------------------|
E|-----------------------------------------------------------------------|
      * * * * * * * * * * * * * * * *

Guitar2 [distortion]
E|--------------------|
B|--------------------|
G|--------------------|
D|-----10-10-10--9----|
A|------8--8--8--7----|
E|--------------------|

E|-------------------------------||------------------------------|
B|-------------------------------||------------------------------|
G|-------------------------------||------------------------------|
D|-------------------------------||------------------------------|
A|--2----2----2----2-------------||--3----3----3----3-----5-5----|
E|--0-00-0-00-0-00-0-00-0-0-0-0--||--1-11-1-11-1-11-1-11--3-3----|
_________2x_____________________/

E|--------------------------------||----------------------------------------|
B|--------------------------------||----------------------------------------|
G|--------------------------------||----------------------------------------|
D|--------------------------------||----------------------------------------|
A|---2----2----2----2-------------||---5-5-5-5-5---3------------------------|
E|---0-00-0-00-0-00-0-00-0-0-0-0--||---3-3-3-3-3-0-1------------------------|
"From the dephts of hell...." "..."

E|---------------------------||-------------------------------|
B|---------------------------||-------------------------------|
G|---------------------------||-------------------------------|
D|-----------------------5-4-||-------------------------------|
A|-2----2----2----2------3-2-||-5-5-5-5-5---3---5-5-5-5-5---2-|
E|-0-00-0-00-0-00-0-00-------||-3-3-3-3-3-0-1---3-3-3-3-3-0-0-|
_________2x_________________/

E|------------------------|
B|------------------------|
G|------------------------|
D|------------------------|
A|-5-5-5-5-5---3---5-3-2--|
E|-3-3-3-3-3-0-1---3-1-0--|
Composição de Jon Schaffer / Randall Shawver
Colaboração e revisão:
  • Taino Vieira
476 exibições
    • ½ Tom
    • A
    • Bb
    • B
    • C
    • Db
    • D
    • Eb
    • E
    • F
    • F#
    • G
    • Ab
  • Adicionar à lista

    0 comentários

    Ver todos os comentários

    Conseguiu tocar?

    0 Tocaram 0 Ainda não

    Grave um vídeo tocando Depths of Hell e nos envie!

    00:00 / 00:00
    outros vídeos desta música
    repetir qualidade Automático
    Outros vídeos desta música
    00:00 / 00:00
    Automático

    Cifra Club Pro

    Aproveite o Cifra Club com benefícios exclusivos e sem anúncios
    Cifra Club Pro
    Aproveite o Cifra Club com benefícios exclusivos e sem anúncios
    OK