Cifra Club

Aprenda

Depths of Hell

Iced Earth

Tab de baixo: Principal
Tune Down

F#||-----------------------------------------------|
C#||-----------------------------------------------|
G#||-----------------------------------------------|
D#||--0--0--0--0--0--0--0--0--0--0--0--0--0--0--0--|
                                                
-----------------------------------------------|
-----------------------------------------------|
-----------------------------------------------|
--0--0--0--0--0--0--0--0--0--0--0--0--0--0--0--|
                                     
-----------------------------------------------|
-----------------------------------------------|
-----------------------------------------------|
--0--0--0--0--0--0--0--0--0--0--0--0--0--0--0--|
                                                
-----------------------------------------------|
-----------------------------------------------|
-----------------------------------------------|
--0--0--0--0--0--0--0--0--0--0--0--0--0--0--0--|

-----------------------------------------------|
-----------------------------------------------|
-----------------------------------------------|
--1--1--1--0--0--0--0--0--0--0--0--0--0--0--0--|

-----------------------------------------------|
-----------------------------------------------|
-----------------------------------------------|
--1--1--1--0--0--0--0--0--0--0--0--0--0--0--0--|
                                          
|------------------------------------------------|
|*-----------------------------------------------|
|*-----------------------------------------------|
|---0--0--0--0--0--0--0--0--0--0--0--0--0--0--0--|
                                                
-----------------------------------------------|
-----------------------------------------------|
-----------------------------------------------|
--0--0--0--0--0--0--0--0--0--0--0--0--0--0--0--|
                                                
-----------------------------------------------|
-----------------------------------------------|
-----------------------------------------------|
--0--0--0--0--0--0--0--0--0--0--0--0--0--0--0--|
                                                
-----------------------------------------------|
-----------------------------------------------|
-----------------------------------------------|
--0--0--0--0--0--0--0--0--0--0--0--0--0--0--0--|
                                                
-----------------------------------------------|
-----------------------------------------------|
-----------------------------------------------|
--1--1--1--0--0--0--0--0--0--0--0--0--0--0--0--|
                                                                     
------------------------------------------------||--------------------------|
-----------------------------------------------*||--------------------------|
-----------------------------------------------*||--------------------------|
--1--1--1--0--0--0--0--0--0--0--0--0--0--0--0---||--0--0--0--0--0--0--0--0--|
                                                        
----------------------------|--------------------------|
----------------------------|--------------------------|
----------------------------|--------------------------|
--0--0--0--0--0--0--0-0-0-0-|--0--0--0--0--0--0--0--0--|
                                                        
----------------------------|--------------------------|
----------------------------|--------------------------|
----------------------------|--------------------------|
--0--0--0--0--0--0--0-0-0-0-|--1--1--1--1--1--1--1--1--|
                                                    
------------------------|--------------------------|
------------------------|--------------------------|
------------------------|--------------------------|
--1--1--1--1--3----3----|--0--0--0--0--0--0--0--0--|
                                                              
----------------------------|------------------------|------------------|
----------------------------|------------------------|------------------|
----------------------------|------------------------|------------------|
--0--0--0--0--0--0--0-0-0-0-|--3--3--3--3----0--1----|------------------|
                                                                       
--------------------------|------------------------|--------------------------|
--------------------------|------------------------|--------------------------|
--------------------------|--------------3----2----|--------------------------|
--0--0--0--0--0--0--0--0--|--0--0--0--0------------|--0--0--0--0--0--0--0--0--|
                                                              
------------------------|------------------------|------------------|
------------------------|------------------------|------------------|
--------------3----2----|------------------------|------------------|
--0--0--0--0------------|--3--3--3--3----0--1----|------------------|
                                                                    
------------------------|------------------|------------------------|
------------------------|------------------|------------------------|
------------------------|------------------|------------------------|
--3--3--3--3----0--0----|------------------|--3--3--3--3----0--1----|
                                                                         
--------------------|--------------------------|------------------------|
--------------------|--------------------------|------------------------|
--------------------|--------------------------|--------------3----2----|
----------3----1----|--0--0--0--0--0--0--0--0--|--0--0--0--0------------|
                                                                               
--------------------------|------------------------|--------------------------|
--------------------------|------------------------|--------------------------|
--------------------------|--------------3----2----|--------------------------|
--0--0--0--0--0--0--0--0--|--0--0--0--0------------|--1--1--1--1--1--1--1--1--|
                                                                             
------------------------|--------------------------|------------------------|
------------------------|--------------------------|------------------------|
--------------2----3----|--------------------------|--------------3----2----|
--1--1--1--1------------|--0--0--0--0--0--0--0--0--|--0--0--0--0------------|
                                                                     
------------------------|------------------|------------------------|
------------------------|------------------|------------------------|
------------------------|------------------|------------------------|
--3--3--3--3----0--1----|------------------|--3--3--3--3----0--0----|
                                                         
------------------|------------------------|--------------------|
------------------|------------------------|--------------------|
------------------|------------------------|--------------------|
------------------|--3--3--3--3----0--1----|----------3----1----|
                                                
|------------------------------------------------|
|*-----------------------------------------------|
|*-----------------------------------------------|
|---0--0--0--0--0--0--0--0--0--0--0--0--0--0--0--|

-----------------------------------------------|
-----------------------------------------------|
-----------------------------------------------|
--0--0--0--0--0--0--0--0--0--0--0--0--0--0--0--|

-----------------------------------------------|
-----------------------------------------------|
-----------------------------------------------|
--0--0--0--0--0--0--0--0--0--0--0--0--0--0--0--|

-----------------------------------------------|
-----------------------------------------------|
-----------------------------------------------|
--0--0--0--0--0--0--0--0--0--0--0--0--0--0--0--|
                                     
-----------------------------------------------|
-----------------------------------------------|
-----------------------------------------------|
--1--1--1--0--0--0--0--0--0--0--0--0--0--0--0--|
                                                                        
------------------------------------------------||--------------------------|
-----------------------------------------------*||--------------------------|
-----------------------------------------------*||--------------------------|
--1--1--1--0--0--0--0--0--0--0--0--0--0--0--0---||--0--0--0--0--0--0--0--0--|
                                                  
----------------------------|--------------------------|
----------------------------|--------------------------|
----------------------------|--------------------------|
--0--0--0--0--0--0--0-0-0-0-|--0--0--0--0--0--0--0--0--|
                                                        
----------------------------|--------------------------|
----------------------------|--------------------------|
----------------------------|--------------------------|
--0--0--0--0--0--0--0-0-0-0-|--1--1--1--1--1--1--1--1--|

------------------------|--------------------------|
------------------------|--------------------------|
------------------------|--------------------------|
--1--1--1--1--3----3----|--0--0--0--0--0--0--0--0--|
                                                                   
----------------------------|------------------------|------------------|
----------------------------|------------------------|------------------|
----------------------------|------------------------|------------------|
--0--0--0--0--0--0--0-0-0-0-|--3--3--3--3----0--1----|------------------|
                                                                               
--------------------------|------------------------|--------------------------|
--------------------------|------------------------|--------------------------|
--------------------------|--------------3----2----|--------------------------|
--0--0--0--0--0--0--0--0--|--0--0--0--0------------|--0--0--0--0--0--0--0--0--|

------------------------|------------------------|------------------|
------------------------|------------------------|------------------|
--------------3----2----|------------------------|------------------|
--0--0--0--0------------|--3--3--3--3----0--1----|------------------|
                                                                     
------------------------|------------------|------------------------|
------------------------|------------------|------------------------|
------------------------|------------------|------------------------|
--3--3--3--3----0--0----|------------------|--3--3--3--3----0--1----|
                      
--------------------||
--------------------||
--------------------||
----------3----1----||
Composição de Jon Schaffer / Randall Shawver
Colaboração e revisão:
  • Taino Vieira
38 exibições

0 comentários

Ver todos os comentários

Conseguiu tocar?

0 Tocaram 0 Ainda não

Grave um vídeo tocando Depths of Hell e nos envie!

00:00 / 00:00
outros vídeos desta música
repetir qualidade Automático
Outros vídeos desta música
00:00 / 00:00
Automático

Cifra Club Pro

Aproveite o Cifra Club com benefícios exclusivos e sem anúncios
Cifra Club Pro
Aproveite o Cifra Club com benefícios exclusivos e sem anúncios
OK