Cifra Club

Aprenda

Dragon's Child

Iced Earth

Tab de baixo: Principal
Tune Down

F#||--------------------|-------------------|-------------------|
C#||*-------------------|-------------------|-------------------|
G#||*-------------------|--3----------------|--2----------------|
D#||---0----------------|-------------------|-------------------|
                                                              
---------------------|-------------------|-------------------|
---------------------|-------------------|-------------------|
--0------3------2----|-------------------|--3----------------|
---------------------|--0----------------|-------------------|
                                                             
-------------------|----------------------|-------------------|
-------------------|----------------------|-------------------|
--2----------------|----------------3--2--|-------------------|
-------------------|--3------5------------|--0----------------|
                                                      
-------------------|-------------------|---------------------|
-------------------|-------------------|---------------------|
--3----------------|--2----------------|--0------3------2----|
-------------------|-------------------|---------------------|
                                                            
-------------------|-------------------|-------------------|
-------------------|-------------------|-------------------|
-------------------|--3----------------|--2----------------|
--0----------------|-------------------|-------------------|
                                                                      
----------------------|-------------------|--------------------------|
----------------------|-------------------|--------------------------|
----------------3--2--|-------------------|-------7--7--7--7--7--7-7-|
--3------5------------|--0----------------|--0-----------------------
                                                                    
--------------------------|--------------------------|---------------------|
--------------------------|--------------------------|---------------------|
--3----3--3--3--3--3--3-3-|--2----2--2--2--2--2--2-2-|---------3------2----|
--------------------------|--------------------------|--5------------------|
                                                      
--------------------------|--------------------------|
--------------------------|--------------------------|
-------7--7--7--7--7--7-7-|--3----3--3--3--3--3--3-3-|
--0-----------------------|--------------------------|
                                                         
---------------------------|----------------------------|
--5h-7---------------------|----------------------------|
--------2--2--2--2--2--2-2-|----------------------3--2--|
---------------------------|--3--3-3-3--3--3-3-3--------|
                                                            
|-----------------------------|----------------------------|
|*----------------------------|----------------------------|
|*----------------------0--2--|--3-------------------0--2--|
|---0--0-0-0--0--0-0-0--------|-----0-0-0--0--0-0-0--------|

                                                   3x                           
----------------------------|----------------------||--------------------------|
----------------------------|---------------------*||--------------------------|
--5-------------------0--2--|---------------------*||-------7--7--7--7--7--7-7-|
-----0-0-0--0--0-0-0--------|--3------5------3-----||--0-----------------------|
                                                                 
--------------------------|--------------------------|---------------------|
--------------------------|--------------------------|---------------------|
--3----3--3--3--3--3--3-3-|--2----2--2--2--2--2--2-2-|---------3------2----|
--------------------------|--------------------------|--5------------------|
                                                      
--------------------------|--------------------------|
--------------------------|--------------------------|
-------7--7--7--7--7--7-7-|--3----3--3--3--3--3--3-3-|
--0-----------------------|--------------------------|
                                                         
---------------------------|----------------------------|
--5h-7---------------------|----------------------------|
--------2--2--2--2--2--2-2-|----------------------3--2--|
---------------------------|--3--3-3-3--3--3-3-3--------|
                                                      
|-----------------------------|----------------------------|
|*----------------------------|----------------------------|
|*----------------------0--2--|--3-------------------0--2--|
|---0--0-0-0--0--0-0-0--------|-----0-0-0--0--0-0-0--------|

                                                   3x                           
----------------------------|----------------------||--------------------------|
----------------------------|---------------------*||--------------------------|
--5-------------------0--2--|---------------------*||-------7--7--7--7--7--7-7-|
-----0-0-0--0--0-0-0--------|--3------5------3-----||--0-----------------------|
                                                                            
--------------------------|--------------------------|---------------------|
--------------------------|--------------------------|---------------------|
--3----3--3--3--3--3--3-3-|--2----2--2--2--2--2--2-2-|---------3------2----|
--------------------------|--------------------------|--5------------------|
                                    
--------------------------|--------------------------|
--------------------------|--------------------------|
-------7--7--7--7--7--7-7-|--3----3--3--3--3--3--3-3-|
--0-----------------------|--------------------------|
                                                         
---------------------------|----------------------------|
--5h-7---------------------|----------------------------|
--------2--2--2--2--2--2-2-|----------------------3--2--|
---------------------------|--3--3-3-3--3--3-3-3--------|

--------------------------|--------------------------|
--------------------------|--------------------------|
-------7--7--7--7--7--7-7-|--3----3--3--3--3--3--3-3-|
--0-----------------------|--------------------------|
                                                                            
--------------------------|---------------------|--------------------------|
--------------------------|---------------------|--------------------------|
--2----2--2--2--2--2--2-2-|---------3------2----|-------7--7--7--7--7--7-7-|
--------------------------|--5------------------|--0-----------------------|
                                                                            
--------------------------|--------------------------|---------------------|
--------------------------|--------------------------|---------------------|
--3----3--3--3--3--3--3-3-|--2----2--2--2--2--2--2-2-|---------3------2----|
--------------------------|--------------------------|--5------------------|
                                                          
----------------------------|----------------------------|
----------------------------|----------------------------|
----------------------0--2--|--3-------------------0--2--|
--0--0-0-0--0--0-0-0--------|-----0-0-0--0--0-0-0--------|
                                                                                
----------------------------|---------------------|----------------------------|
----------------------------|---------------------|----------------------------|
--5-------------------0--2--|---------------------|----------------------0--2--|
-----0-0-0--0--0-0-0--------|--3------5------3----|--0--0-0-0--0--0-0-0--------|

----------------------------|----------------------------|---------------------|
----------------------------|----------------------------|---------------------|
--3-------------------0--2--|--5-------------------0--2--|---------------------|
-----0-0-0--0--0-0-0--------|-----0-0-0--0--0-0-0--------|--3------5------3----|
                                             
--------------------------|--------------------------|
--------------------------|--------------------------|
-------7--7--7--7--7--7-7-|--3----3--3--3--3--3--3-3-|
--0-----------------------|--------------------------|
                                                                            
--------------------------|---------------------|--------------------------|
--------------------------|---------------------|--------------------------|
--2----2--2--2--2--2--2-2-|---------3------2----|-------7--7--7--7--7--7-7-|
--------------------------|--5------------------|--0-----------------------|
                                                                         
--------------------------|--------------------------|---------------------|
--------------------------|--------------------------|---------------------|
--3----3--3--3--3--3--3-3-|--2----2--2--2--2--2--2-2-|---------3------2----|
--------------------------|--------------------------|--5------------------|
                                                      
--------------------------|--------------------------|
--------------------------|--------------------------|
-------7--7--7--7--7--7-7-|--3----3--3--3--3--3--3-3-|
--0-----------------------|--------------------------|
                                                                            
--------------------------|---------------------|--------------------------|
--------------------------|---------------------|--------------------------|
--2----2--2--2--2--2--2-2-|---------3------2----|-------7--7--7--7--7--7-7-|
--------------------------|--5------------------|--0-----------------------|
                                                       
--------------------------|---------------------------|
--------------------------|--5h-7---------------------|
--3----3--3--3--3--3--3-3-|--------2--2--2--2--2--2-2-|
--------------------------|---------------------------|
                                                    
----------------------------|--------------------------|
----------------------------|--------------------------|
----------------------3--2--|-------7--7--7--7--7--7-7-|
--3--3-3-3--3--3-3-3--------|--0-----------------------|
                                                                            
--------------------------|--------------------------|---------------------|
--------------------------|--------------------------|---------------------|
--3----3--3--3--3--3--3-3-|--2----2--2--2--2--2--2-2-|---------3------2----|
--------------------------|--------------------------|--5------------------|
                                               
--------------------------|--------------------------|
--------------------------|--------------------------|
-------7--7--7--7--7--7-7-|--3----3--3--3--3--3--3-3-|
--0-----------------------|--------------------------|
                                                 
---------------------------|----------------------------|
--5h-7---------------------|----------------------------|
--------2--2--2--2--2--2-2-|----------------------3--2--|
---------------------------|--3--3-3-3--3--3-3-3--------|
                                                      
--------------------------|--------------------------|
--------------------------|--------------------------|
-------7--7--7--7--7--7-7-|--3----3--3--3--3--3--3-3-|
--0-----------------------|--------------------------|
                                                                  
--------------------------|---------------------|--------------------------|
--------------------------|---------------------|--------------------------|
--2----2--2--2--2--2--2-2-|---------3------2----|-------7--7--7--7--7--7-7-|
--------------------------|--5------------------|--0-----------------------|
                                                       
--------------------------|---------------------------|
--------------------------|--5h-7---------------------|
--3----3--3--3--3--3--3-3-|--------2--2--2--2--2--2-2-|
--------------------------|---------------------------|
                                                     
----------------------------|--------------------------|
----------------------------|--------------------------|
----------------------3--2--|-------7--7--7--7--7--7-7-|
--3--3-3-3--3--3-3-3--------|--0-----------------------|
                                                                            
--------------------------|--------------------------|---------------------|
--------------------------|--------------------------|---------------------|
--3----3--3--3--3--3--3-3-|--2----2--2--2--2--2--2-2-|---------3------2----|
--------------------------|--------------------------|--5------------------|
                                                            
---------------------12------|---------------------12------|
--------------9--12------12--|--------------7--10------10--|
--------7--7-----------------|--3--3--3--3-----------------|
--0--0-----------------------|-----------------------------|
                                                                      
--------------------7------|---------------------|-------------------|
--------------5--7-----7---|---------------------|-------------------|
--2--2--2--2-------------8-|---------3------2----|-------------------|
---------------------------|--5------------------|--0----------------|
                     
-------------------||
-------------------||
-------------------||
--0----------------||
Composição de Jon Schaffer / Matthew Barlow
Colaboração e revisão:
  • Taino Vieira
25 exibições

0 comentários

Ver todos os comentários

Conseguiu tocar?

0 Tocaram 0 Ainda não

Grave um vídeo tocando Dragon's Child e nos envie!

00:00 / 00:00
outros vídeos desta música
repetir qualidade Automático
Outros vídeos desta música
00:00 / 00:00
Automático

Cifra Club Pro

Aproveite o Cifra Club com benefícios exclusivos e sem anúncios
Cifra Club Pro
Aproveite o Cifra Club com benefícios exclusivos e sem anúncios
OK