Cifra Club

Aprenda

God Of Thunder

Iced Earth

Cifra: Principal (violão e guitarra)
tom: A
Allright, This song is originally in two forms...Drop D or the Standard Iced Earth Tuning Eb. I tabbed it so you can play it on a regular tuning..sounds less powerfull but is fine! 

00:03 until 00:35
Intro
e|-----------------------------------------------------------------------------|
b-------------------------6-----------------6---------------------------------|
g-888---6/8----888---6/8--6------888---6/8--4---4-6-6h7p6--4h6----------------|
d-888---6/8----888---6/8--4------888---6/8--4-6-------------------------------|
a-666---4/6----666---4/6---------666---4/6------------------------------------|
E|-----------------------------------------------------------------------------|
.. .. ..

00:36 until 01:13

Riff1 First Lick Second Lick
e|--------------|------------------|-------------------------------------|
b-----------6--|------------------|-------------------------------------|
g------6/8--6--|------------------|-------------------------------------|
d------6/8--4--|-4-6-6h7p6--4h6---|-------------------------------------|
a-2----4/6-----|------------------|-6666 4h6----------------------------|
E|-0-0----------|------------------|-------------------------------------|
. .... . .

01:14 until 01:32 

Riff2 First Ending Second Ending
e|--------------------|------------------------|----------------------|
b--------------------|------------------------|----------------------|
g-4-4------- 6-6--8--|--4-4---8-8-------------|----------------------|
d-4-4--4-4---6-6--8--|--4-4---8-8---22222--3--|--4-3-4-3--4-8-4------|
a-2-2--4-4---4-4--6--|--2-2---6-6---00000--1--|--2-1-2-1--2-6-2------|
E|----- 2-2-----------|------------------------|----------------------|
..... . . . . . . .

01:33 until 01:42 : Intro

01:43 until 02:02 : Riff 1 

02:03 until 2:20 : Riff 2
Composição de Kiss
Colaboração e revisão:
  • Taino Vieira
791 exibições
    • ½ Tom
    • A
    • Bb
    • B
    • C
    • Db
    • D
    • Eb
    • E
    • F
    • F#
    • G
    • Ab
  • Adicionar à lista

    0 comentários

    Ver todos os comentários

    Conseguiu tocar?

    1 Tocaram 0 Ainda não

    Grave um vídeo tocando God Of Thunder e nos envie!

    00:00 / 00:00
    outros vídeos desta música
    repetir qualidade Automático
    Outros vídeos desta música
    00:00 / 00:00
    Automático

    Cifra Club Pro

    Aproveite o Cifra Club com benefícios exclusivos e sem anúncios
    Cifra Club Pro
    Aproveite o Cifra Club com benefícios exclusivos e sem anúncios
    OK