Cifra Club

Aprenda

Horror Show

Iced Earth

Tab de baixo: Principal
Intro x8
Gb|--------9------10-\-9----9-------9---------7-----------------|
Db|--------9------10-\-9----9-------9-----7------7--------------|
Ab|--------7------8--\-7----7-------7--5-------------5----------|
Eb|--0-0-----0-0---------0-----0-0------------------------------|

Clean Guitar Part is played

Riff 1 x4
Gb|--------------------------------------------------------------|
Db|--------------------------------------------------------------|
Ab|--8---8-7-----------------------------------------------------|
Eb|----0-----0-0-0-0-0-0-0-0-0-0--1-3-1-1--0-0-0-0-0-0-0-0-0-0---|

Riff 2a x2
Gb|-----------------------|
Db|-----------------------|
Ab|-----------------------|
Eb|--0-11111111-0---------|

Riff 2b x2
Gb|-------------------------------------------------------------|
Db|---------------------------------------------------5---------|
Ab|----------------5-7-8-7-5-8-7----------------5-7-8---8-5-8---|
Eb|--0-11111111-0-----------------0-11111111-0------------------|

Riff 3 x2
Gb|------------------------------------------------------------|
Db|----------------------------------------------------------4-|
Ab|--7---------------------7-9-10—-5--5-5-5--5-5-5--5-5--5-7---|
Eb|-----0-0-0--0-0-0—-0-0--------------------------------------|

Gb|---------------------------------|
Db|----------------------------2----|
Ab|--3--3-3-3--3-3-3-—3-3--3-0------|
Eb|---------------------------------|

Gb|---------------------|
Db|---------------------|
Ab|--2--2—2--2-—2-3-5---|
Eb|---------------------|


Riff 1 x4
Gb|--------------------------------------------------------------|
Db|--------------------------------------------------------------|
Ab|--8---8-7-----------------------------------------------------|
Eb|----0-----0-0-0-0-0-0-0-0-0-0--1-3-1-1--0-0-0-0-0-0-0-0-0-0---|

Riff 2a x2
Gb|-----------------------|
Db|-----------------------|
Ab|-----------------------|
Eb|--0-11111111-0--------|

Riff 2b x2
Gb|-------------------------------------------------------------|
Db|---------------------------------------------------5---------|
Ab|----------------5-7-8-7-5-8-7----------------5-7-8---8-5-8---|
Eb|--0-11111111-0-----------------0-11111111-0------------------|

Riff 3 Variation x2
Gb|-----------------------------------------------|
Db|---------------------------------------------4-|
Ab|-7-------7-------7-9-10—-5-------5-------5-7---|
Eb|---0-0-0---0-0-0—----------0-0-0---0-0-0-------|

Gb|--------------------------|
Db|----------------------2---|
Ab|--3-------3--—----3-0-----|
Eb|----0-0-0---0-0-0---------|

Gb|--------------------------|
Db|--------------------------|
Ab|--2—------2-------2-3-5---|
Eb|----0-0-0---0-0-0---------|


Bridge
Gb|-------9-------9------10----------10-----10------10-10p9-9--------|
Db|-----7------7------7------------7------7-------7-----------------|
Ab|--0------0------0------------0------0-------0--------------------|
Eb|-----------------------------------------------------------------|


Riff 3 Variation x2
Gb|--------------------------------------------|
Db|--------------------------------------------|
Ab|-7-------7-------7---5-------5-------5---3--|
Eb|---0-0-0---0-0-0---0---0-0-0---0-0-0---0----|

Gb|------------------------------------------------|
Db|------------------------------------------------|
Ab|---------3-------3---2-------2-------2---2-3-5--|
Eb|---0-0-0---0-0-0---0---0-0-0---0-0-0---0--------|


Riff 1 x4
Gb|--------------------------------------------------------------|
Db|--------------------------------------------------------------|
Ab|--8---8-7-----------------------------------------------------|
Eb|----0-----0-0-0-0-0-0-0-0-0-0--1-3-1-1--0-0-0-0-0-0-0-0-0-0---|

Riff 2a x2
Gb|----------------------------|
Db|----------------------------|
Ab|-----------------------------|
Eb|---0-11111111-0--------|

Riff 2b x2
Gb|-------------------------------------------------------------|
Db|---------------------------------------------------5---------|
Ab|----------------5-7-8-7-5-8-7----------------5-7-8---8-5-8---|
Eb|--0-11111111-0-----------------0-11111111-0------------------|

Riff 3 Variation x6
Gb|--------------------------------------------|
Db|--------------------------------------------|
Ab|-7-------7-------7---5-------5-------5---3--|
Eb|---0-0-0---0-0-0---0---0-0-0---0-0-0---0----|

Gb|------------------------------------------------|
Db|------------------------------------------------|
Ab|---------3-------3---2-------2-------2---2-3-5--|
Eb|---0-0-0---0-0-0---0---0-0-0---0-0-0---0--------|


Riff 1 x4
Gb|--------------------------------------------------------------|
Db|--------------------------------------------------------------|
Ab|--8---8-7-----------------------------------------------------|
Eb|----0-----0-0-0-0-0-0-0-0-0-0--1-3-1-1--0-0-0-0-0-0-0-0-0-0---|
Colaboração e revisão:
  • Taino Vieira
56 exibições

0 comentários

Ver todos os comentários

Conseguiu tocar?

0 Tocaram 0 Ainda não

Grave um vídeo tocando Horror Show e nos envie!

00:00 / 00:00
outros vídeos desta música
repetir qualidade Automático
Outros vídeos desta música
00:00 / 00:00
Automático

Cifra Club Pro

Aproveite o Cifra Club com benefícios exclusivos e sem anúncios
Cifra Club Pro
Aproveite o Cifra Club com benefícios exclusivos e sem anúncios
OK