I Died For You

Iced Earth

Composição: Jon Schaffer
Tom: D#
Tuning: Eb

Riff 1 (clean)
eb|-----------------------------|
Bb|-----------------------------|
Gb|-----0-----0---------0-------|
Db|---2-----2---------4---4---4-|
Ab|-----------------5-------5---|
Eb|-0-----0---------------------|
   "I can't believe......."


RIff 2 (distortion, studio version)
eb|---------------------------------------|
Bb|---------------------------------------|
Gb|---------------------------------------|
Db|--------5-----4-5------------5-----4-4-|
Ab|-7------7-----5-7-----7------7-----5-5-|
Eb|-0--0-0---0-0---------0--0-0---0-0-----|
       * *   * *            * *   * *
   "Oh how I love you......."

Here's the live version:
eb|---------------------------------------|
Bb|---------------------------------------|
Gb|---------------------------------------|
Db|--------5-----4-9------------5-----4-4-|
Ab|-7------7-----5-7-----7------7-----5-5-|
Eb|-0--0-0---0-0---------0--0-0---0-0-----|
       * *   * *            * *   * *

Guitar 1 plays Riff 1   "The pain was just......."

Lead over the above riff:
Guitar 2
eb|--7----5-----------5--7--5----|
Bb|-----------8----------------7-|
Gb|------------------------------|
Db|------------------------------|
Ab|------------------------------|
Eb|------------------------------|

Guitar 3
eb|------------------------------|
Bb|--8----7---5-------7--8--7----|
Gb|----------------------------7-|
Db|------------------------------|
Ab|------------------------------|
Eb|------------------------------|


Play Riff 2    "Oh how I love you......."
Play Riff 2    Solo Rhythm

Song fades out with riff 2.

Solo:

Guitar 1  (Play twice, omitting last note 2nd time)
eb|-------------------------------------------------------------|
Bb|--20^^r--19-20-17~------20^^r--19-20-------------------------|
Gb|----------------------------------------------19~--17-16-17~-|
Db|-------------------------------------------------------------|
Ab|-------------------------------------------------------------|
Eb|-------------------------------------------------------------|

Guitar 2  (Harmony)
eb|-------------------------------------------------------------|
Bb|--17^^r--16-17-14~------17^^r--16-17-------------------------|
Gb|----------------------------------------------16~--14-13-14~-|
Db|-------------------------------------------------------------|
Ab|-------------------------------------------------------------|
Eb|-------------------------------------------------------------|


Ending leads
Guitar 1  (Play four times):
eb|--------------------------------------------------------------------|
Bb|----19-20-17~---20-19-20------19-20-20-/-22--19---------------------|
Gb|-19------------------------19~-------------------19-18-16--18-16-18-|
Db|--------------------------------------------------------------------|
Ab|--------------------------------------------------------------------|
Eb|--------------------------------------------------------------------|

Guitar 2  (Harmony):
eb|--------------------------------------------------------------------|
Bb|----16-17-14~---17-16-17------16-17-17-/-19--16---------------------|
Gb|-16------------------------16~-------------------16-15-13--15-13-15-|
Db|--------------------------------------------------------------------|
Ab|--------------------------------------------------------------------|
Eb|--------------------------------------------------------------------|

Ending solo
eb|--19--------------17------------15-|--19------17----15----15-|
Bb|-----------------------17----17----|----17-------17----17----|
Gb|-------16-16-16-----------16-------|-------16----------------|
Db|-----------------------------------|-------------------------|
Ab|-----------------------------------|-------------------------|
Eb|-----------------------------------|-------------------------|

eb|----(15)\14-14----15-|-17----15-17-15-14-|
Bb|---------------------|-------------------|
Gb|---------------------|-------------------|
Db|---------------------|-------------------|
Ab|---------------------|-------------------|
Eb|---------------------|-------------------|
Página 1 / 1

Letras e título
Acordes e artista

resetar configurações
OK