Cifra Club

Aprenda

Iced Earth

Iced Earth

Cifra: Principal (violão e guitarra)
tom: F#
Tuning: Eb Bb Gb Db Ab Eb (1/2 step down) 


Riff A (x2) 
E------------------------------------------------------ 
B------------------------------------------------------ 
G------4-5--5--4h5p4h5p4-4h5p4h5p4-4h5p4h5p4-4h5p4h5p4- 
D---4-------------------------------------------------- 
A---4-------------------------------------------------- 
E---2-------------------------------------------------- 

(cont) 
---------------------------------------------------------| 
---------------------------------------------------------| 
---------------------------------------------------------| 
----4--5-4--4--4h5p4h5p4-4h5p4h5p4-4h5p4h5p4-4h5p4h5p4---| 
----4----------------------------------------------------| 
----2----------------------------------------------------| 

Riff B (x6) 
E------------------------------------------------------------------| 
B------------------------------------------------------------------| 
G------4-5---5-5---5---5-------------------------------------------| 
D---4--4-5---5-5---5---5-----------4--5-4---4-4---4---4------------| 
A---4--2-3-333-3-333-333--3333320--4--5-4---4-4---4---4------------| 
E---2----------------------------3-2--3-2-222-2-222-222--2222320---| 
           ..    ..  ..   ....            ..    ..  .. 


Bass 


Riff B (x4) 

Riff C (clean, x4) 
E------------------------------------------------------------------| 
B--------------------------------------------------10---------12---| 
G--------11-------------13------------9----------9----9----11------| 
D-----11----11-------13----13-------9---9---9--7---------9---------| 
A---9----------9--11----------11--7-------7------------------------| 
E------------------------------------------------------------------| 


Riff D (x2) 
E----------------------------------------------------------| 
B------------------------------------------10---------12---| 
G---11-11--11---13-13--13---9-9--9--9----9----9----11------| 
D---11-11--11---13-13--13---9-9--9--9--7---------9---------| 
A----9--9---9---11-11--11---7-7--7--7----------------------| 
E----------------------------------------------------------| 


Riff E (x2) 
E----------------------------------------------------------------| 
B------------------------------------------------10---------12---| 
G---11-11--11--11--13-13--13--13--9-9--9--9----9----9----11------| 
D---11-11--11--11--13-13--13--13--9-9--9--9--7---------9---------| 
A----9--9---9---9--11-11--11--11--7-7--7--7----------------------| 
E----------------------------------------------------------------| 


Riff F (x2) 
E------------------------------------------- 
B------------------------------------------- 
G------------------------------------------- 
D------------------------------------------- 
A-------4-5-4---4-5-4-------2-3-5-3-2------- 
E---2-----------------3---3-----------3-2-0- 


(cont)                                       2nd time 
--------------------------------------------|--------| 
--------------------------------------------|--------| 
--------------------------------------------|--------| 
--------------------------------------------|---4----| 
--------4-5-4---4-5-4-2---------------------|---4----| 
----2---------------------5-3-2-5-3-2-5-3---|---2----| 



Riff G (x4) 
E------------------------------------------------------------------| 
B------------------------------------------------------------------| 
G---11------------------------------------------------------9--9---| 
D---11-------------11--------------12--------------11-------9--9---| 
A----9-999-999-999-----9-9-999-999-----9-9-999-999-----9-9--7--7---| 
E------------------------------------------------------------------| 
       ...........     ...........     ...........     ... 


Riff H (x2) 
E------------------------------------------------------ 
B------------------------------------------------------ 
G---14------------------------------------------------- 
D---14----------------------14----------------------15- 
A---12-121212-121212-121212-----12-12-121212-121212---- 
E------------------------------------------------------ 
       ....................     ................... 


(cont) 
--------------------------------------------| 
--------------------------------------------| 
-----------------------------------12--12---| 
------------------------14---------12--12---| 
----12-12-121212-121212-----12-12--10--10---| 
--------------------------------------------| 
    ...................     ..... 


Riff I (x2) 
E--------------------------------------------------------------| 
B--------------------------------------------------------------| 
G--------------------------------------------------------------| 
D----------------------------------------------------------2---| 
A---8--8-8-8-10-8-7--7-7-7-876------8--8-8-8-10-8-7--------2---| 
E------------------------------876-------------------0-0-0-0---| 
                                                     ..... 


Riff J (x4) 
E------------------------------------------------------------- 
B------------------------------------------------------------- 
G----------------5---------------------------4--4------------- 
D---2------------5--------------2------------4--4------------- 
A---2------------3--3-333-333-0-2------------2--2-5-3-2------- 
E---0--0-000-000----------------0--0-000-000------------5-3-2- 
       .........    ...........    ......... 


(cont) 
----------------------------------------------------| 
----------------------------------------------------| 
-------------------------------------------5--------| 
---2------------5--5-5-5--5-4--4-4-4-------5----2---| 
---2------------5--5-5-5--5-4--4-4-4-5-3-2-3----2---| 
---0--0-000-000-3--3-3-3--3-2--2-2-2----------0-0---| 
      .........                      .....    . 


Riff K (x2) 
E--------------------------------------------------- 
B--------------------------------------------------- 
G--------------------------------------------------- 
D--------------------------------------------------- 
A---------4-----------2-----------4-----------2----- 
E---2-2-2---2-2-3-3-3---3-3-2-2-2---2-2-3-3-3---3-3- 
    .....   .........   .........   .........   ... 


(cont) 
------------------------------------------------------| 
------------------------------------------------------| 
------------------------------------------------------| 
------------------------------------------------------| 
----------5-----------3-----------5-----------3-------| 
----3-3-3---3-3-4-4-4---4-4-3-3-3---3-3-4-4-4---4-4---| 
    .....   .........   .........   .........   ... 


Riff L (x2) 
E-----------------------------------------------------------| 
B-----------------------------------------------------------| 
G-----------------------------------------------------------| 
D---9----9----9--10----10----10--9----9----9--8----8----8---| 
A---7-7777-7777---7-777-7-777-7--6-6666-6666--6-6666-6666---| 
E-----------------------------------------------------------| 
      ...  ...      ...   ...      ...  ...     ...  ... 


Riff B (x2) 


Riff M (x4) 
E--------------------------------| 
B--------------------------------| 
G------4-5---5-5-----------------| 
D---4--4-5---5-5--4--5-4---4-4---| 
A---4--2-3-333-3--4--5-4---4-4---| 
E---2-------------2--3-2-222-2---| 
           ..            .. 


Riff N (x3)                             3rd time 
E--------------------------------------|----------------------------| 
B--------------------------------------|----------------------------| 
G--------------------------------------|----------------------------| 
D--------------------------------------|------------------------4---| 
A-------2-3-33-3-3-33------------------|-----2-3-33-3-3-33------4---| 
E---2-22-------------2-223-2-22-2-2-22-|-2-22-------------2-223-2---| 
4.173 exibições
    • ½ Tom
    • A
    • Bb
    • B
    • C
    • Db
    • D
    • Eb
    • E
    • F
    • F#
    • G
    • Ab
  • Adicionar à lista

    0 comentários

    Ver todos os comentários

    Conseguiu tocar?

    1 Tocaram 0 Ainda não

    Grave um vídeo tocando Iced Earth e nos envie!

    00:00 / 00:00
    outros vídeos desta música
    repetir qualidade Automático
    Outros vídeos desta música
    00:00 / 00:00
    Automático

    Cifra Club Pro

    Aproveite o Cifra Club com benefícios exclusivos e sem anúncios
    Cifra Club Pro
    Aproveite o Cifra Club com benefícios exclusivos e sem anúncios
    OK