Cifra Club

Aprenda

Im Ho Tep

Iced Earth

Tab de baixo: Principal
Tune Down

F#||-----------------------|-----------------------|---------------------|
C#||*----------------------|-----------------------|---------------------|
G#||*------------7---------|------------7-----7----|--5------5--5--------|
D#||---0----0-----------0--|--0----0-------0-------|---------------------|
                                                                
---------------------|----------------------|-----------------------|
---------------------|----------------------|-----------------------|
--7--8--7------------|------------7---------|------------7-----7----|
---------------------|--0----0-----------0--|--0----0-------0-------|
                                                             
---------------------|----------------------||-------------------|
---------------------|---------------------*||-------------------|
--5------5--5--------|--7--8--7------------*||-------------------|
---------------------|----------------------||--0----------------|
                                                    
-------------------|-------------------|-------------------|
-------------------|-------------------|-------------------|
-------------------|-------------------|-------------------|
--3----------------|--2----------------|--5----------------|
                                                              
----------------------|----------------------|----------------------|
----------------------|----------------------|----------------------|
----------------------|----------------------|----------------------|
--0----0--0------0----|--3----3--3------3----|--2----2--2------2----|
                                                                   
-----------------------||------------------------|-----------------------|
-----------------------||*-----------------------|-----------------------|
-----------------------||*-----------------------|-----------------------|
--5----5--5----3--3----||---0--0----0----0----0--|--0--0----0----0----0--|

                                                3x
-----------------------|------------------------||
-----------------------|-----------------------*||
-----------------------|-----------------------*||
--0--0----0----0----0--|--0--0----0----0----0---||
                                                                 
----------------------------------|----------------------------------|
----------------------------------|----------------------------------|
----------------------------------|----------------------------------|
--0-0-0-0-0-0-0-0-0-0-0-0-0-0-0-0-|--0-0-0-0-0-0-0-0-0-0-0-0-0-0-0-0-|
                                                                    
|-----------------------------------|----------------------------------|
|*----------------------------------|----------------------------------|
|*----------------------------------|----------------------------------|
|---0-0-0-0-0-0-0-0-0-0-0-0-0-0-0-0-|--0-0-0-0-0-0-0-0-0-0-0-0-0-0-0-0-|
                                                                      
----------------------------------|----------------------------------|
----------------------------------|----------------------------------|
----------------------------------|----------------------------------|
--0-0-0-0-0-0-0-0-0-0-0-0-0-0-0-0-|--0-0-0-0-0-0-0-0-0-0-0-0-0-0-0-0-|
                                                                 
----------------------------------|-----------------------------------||
----------------------------------|----------------------------------*||
----------------------------------|----------------------------------*||
--0-0-0-0-0-0-0-0-0-0-0-0-0-0-0-0-|--0-0-0-0-0-0-0-0-0-0-0-0-0-0-0-0--||
                                                               
----------------------------------|----------------------------------|
----------------------------------|----------------------------------|
----------------------------------|----------------------------------|
--0-0-0-0-0-0-0-0-0-0-0-0-0-0-0-0-|--0-0-0-0-0-0-0-0-0-0-0-0-0-0-0-0-|
                                                                          
|------------------------|-----------------------|-----------------------|
|*-----------------------|-----------------------|-----------------------|
|*-----------------------|-----------------------|-----------------------|
|---0--0----0----0----0--|--0--0----0----0----0--|--0--0----0----0----0--|

                        3x                                   
------------------------||----------------------------------|
-----------------------*||----------------------------------|
-----------------------*||----------------------------------|
--0--0----0----0----0---||--0-0-0-0-0-0-0-0-0-0-0-0-0-0-0-0-|
                                                                        
----------------------------------||-----------------------------------|
----------------------------------||*----------------------------------|
----------------------------------||*----------------------------------|
--0-0-0-0-0-0-0-0-0-0-0-0-0-0-0-0-||---0-0-0-0-0-0-0-0-0-0-0-0-0-0-0-0-|
                                                                      
----------------------------------|----------------------------------|
----------------------------------|----------------------------------|
----------------------------------|----------------------------------|
--0-0-0-0-0-0-0-0-0-0-0-0-0-0-0-0-|--0-0-0-0-0-0-0-0-0-0-0-0-0-0-0-0-|
                                                                      
----------------------------------|----------------------------------|
----------------------------------|----------------------------------|
----------------------------------|----------------------------------|
--0-0-0-0-0-0-0-0-0-0-0-0-0-0-0-0-|--0-0-0-0-0-0-0-0-0-0-0-0-0-0-0-0-|
                                                                 
-----------------------------------||----------------------------------|
----------------------------------*||----------------------------------|
----------------------------------*||----------------------------------|
--0-0-0-0-0-0-0-0-0-0-0-0-0-0-0-0--||--0-0-0-0-0-0-0-0-0-0-0-0-0-0-0-0-|
                                                          
----------------------------------|--------------------------|
----------------------------------|--------------------------|
----------------------------------|--------------------5--8--|
--0-0-0-0-0-0-0-0-0-0-0-0-0-0-0-0-|--0--0-0-3--0----0--------|
                                                     
-------------------------|------------------------------|
-------------------------|------------------------------|
-------------------------|--5--5-5-5-5-5--5-5-5-5-5--8--|
--0--0-0-3--0----0--3----|------------------------------|
                                                                               
-------------------------|--------------------------|-------------------------|
-------------------------|--------------------------|-------------------------|
-------------------------|--------------------5--8--|-------------------------|
--0--0-0-3--0----0--3----|--0--0-0-3--0----0--------|--0--0-0-3--0----0--3----|
                                                       
------------------------------|-------------------------|
------------------------------|-------------------------|
--5--5-5-5-5-5--5-5-5-5-5--8--|-------------------------|
------------------------------|--0--0-0-3--0----0--3----|
                                                                          
-----------------------||------------------------|-----------------------|
-----------------------||*-----------------------|-----------------------|
-----------------------||*-----------------------|-----------------------|
--0--0----0----0----0--||---0--0----0----0----0--|--0--0----0----0----0--|

                                                3x
-----------------------|------------------------||
-----------------------|-----------------------*||
-----------------------|-----------------------*||
--0--0----0----0----0--|--0--0----0----0----0---||

----------------------------------|----------------------------------|
----------------------------------|----------------------------------|
----------------------------------|----------------------------------|
--0-0-0-0-0-0-0-0-0-0-0-0-0-0-0-0-|--0-0-0-0-0-0-0-0-0-0-0-0-0-0-0-0-|
                                                                        
|-----------------------------------|----------------------------------|
|*----------------------------------|----------------------------------|
|*----------------------------------|----------------------------------|
|---0-0-0-0-0-0-0-0-0-0-0-0-0-0-0-0-|--0-0-0-0-0-0-0-0-0-0-0-0-0-0-0-0-|
                                                                      
----------------------------------|----------------------------------|
----------------------------------|----------------------------------|
----------------------------------|----------------------------------|
--0-0-0-0-0-0-0-0-0-0-0-0-0-0-0-0-|--0-0-0-0-0-0-0-0-0-0-0-0-0-0-0-0-|
                                                                    
----------------------------------|-----------------------------------||
----------------------------------|----------------------------------*||
----------------------------------|----------------------------------*||
--0-0-0-0-0-0-0-0-0-0-0-0-0-0-0-0-|--0-0-0-0-0-0-0-0-0-0-0-0-0-0-0-0--||
                                                                      
----------------------------------|----------------------------------|
----------------------------------|----------------------------------|
----------------------------------|----------------------------------|
--0-0-0-0-0-0-0-0-0-0-0-0-0-0-0-0-|--0-0-0-0-0-0-0-0-0-0-0-0-0-0-0-0-|
                                                                   
|-----------------------|-----------------------|---------------------|
|*----------------------|-----------------------|---------------------|
|*------------7---------|------------7-----7----|--5------5--5--------|
|---0----0-----------0--|--0----0-------0-------|---------------------|
                                                                    
---------------------|----------------------|-----------------------|
---------------------|----------------------|-----------------------|
--7--8--7------------|------------7---------|------------7-----7----|
---------------------|--0----0-----------0--|--0----0-------0-------|
                                                                   
---------------------|----------------------||-------------------||
---------------------|---------------------*||-------------------||
--5------5--5--------|--7--8--7------------*||-------------------||
---------------------|----------------------||--0----------------||
Composição de Jon Schaffer / Matthew Barlow
Colaboração e revisão:
  • Taino Vieira
24 exibições

0 comentários

Ver todos os comentários

Conseguiu tocar?

0 Tocaram 0 Ainda não

Grave um vídeo tocando Im Ho Tep e nos envie!

00:00 / 00:00
outros vídeos desta música
repetir qualidade Automático
Outros vídeos desta música
00:00 / 00:00
Automático

Cifra Club Pro

Aproveite o Cifra Club com benefícios exclusivos e sem anúncios
Cifra Club Pro
Aproveite o Cifra Club com benefícios exclusivos e sem anúncios
OK