Cifra Club

Aprenda

Last December

Iced Earth

Tab de baixo: Principal
Tune Down

F#||-------------------|------------------|-------------------|
C#||-------------------|------------------|-------------------|
G#||-------------------|------------------|-------------------|
D#||--0----------------|------------------|--1----------------|
                                                                    
-----------------------|---------------------|---------------------|
-------7--10----7------|---------------------|---------------------|
----8------------------|---------------------|---------------------|
-----------------------|--0------0--0--------|--0------0--0--------|
                                                   
-------------------|---------------7-------|-------------------|
-------------------|----------7-------7----|-------------------|
-------------------|----5--8---------------|-------------------|
--1----------------|-----------------------|--0----------------|
                                                                 
-------------------|-------------------|----------7-------------|
-------------------|-------------------|-------7-----7-----7----|
-------------------|-------------------|----8-----------8-------|
--0----------------|--1----------------|------------------------|
                                                            
-------------------|-------------------|-------------------|
-------------------|-------------------|-------------------|
-------------------|-------------------|-------------------|
--0----------------|--0----------------|--1----------------|
                                                                   
----------------------|---------------------|---------------------|
----------7----5------|---------------------|---------------------|
----5--8--------------|---------------------|---------------------|
----------------------|--0------0--0--------|--0------0--0--------|
                                                                      
-------------------|---------------------------|---------------------|
-------------------|----------10--7--10--7--5--|---------------------|
-------------------|----5--8-------------------|---------------------|
--1----------------|---------------------------|--0------0--0--------|
                                                         
---------------------|-------------------|------------------|
---------------------|-------------------|------------------|
---------------------|-------------------|------------------|
--0------0--0--------|--1----------------|------------------|
                                                           
----------------------------|------------------------------|
----------------------------|------------------------------|
----------------------------|------------------------------|
--0-0---0--0-0-0-0---0--0-0-|--0-0---0--0-0-3-3-3-3-1--1-1-|
                                                        
----------------------------|------------------------------|
----------------------------|------------------------------|
----------------------------|------------------------------|
--0-0---0--0-0-0-0---0--0-0-|--0-0---0--0-0-3-3-3-3-1--1-1-|
                                                                  
----------------------------------|----------------------------------|
----------------------------------|----------------------------------|
--5h7-------------5h7-------------|--5h7-----------------------------|
------0-0-0-0-0-0-----0-0-0-0-0-0-|------0-0-0-0-0-0-3-3-3-3-1-1-1-1-|
                                                             
----------------------------------|---------------------------------|
----------------------------------|---------------------------------|
--5h7-------------5h7-------------|--5h7----------------------------|
------0-0-0-0-0-0-----0-0-0-0-0-0-|------0-0-0-0-0-0-3-3-3-3-1--1-1-|
                                                                
----------------------------------|----------------------------------|
----------------------------------|----------------------------------|
--5h7-------------5h7-------------|--5h7-----------------------------|
------0-0-0-0-0-0-----0-0-0-0-0-0-|------0-0-0-0-0-0-3-3-3-3-1-1-1-1-|
                                                                     
----------------------------------|---------------------------------|
----------------------------------|---------------------------------|
--5h7-------------5h7-------------|--5h7----------------------------|
------0-0-0-0-0-0-----0-0-0-0-0-0-|------0-0-0-0-0-0-3-3-3-3-1--1-1-|
                                                        
----------------------------|--------------------------|
----------------------------|--------------------------|
--5/7---7--7-7-7/5---5--5-5-|--5/8---8--8-8-8/5---7----|
----------------------------|--------------------------|
                                                                  
----------------------------------|----------------------------------|
----------------------------------|----------------------------------|
--5h7-------------5h7-------------|--5h7-----------------------------|
------0-0-0-0-0-0-----0-0-0-0-0-0-|------0-0-0-0-0-0-3-3-3-3-1-1-1-1-|
                                                                  
----------------------------------|---------------------------------|
----------------------------------|---------------------------------|
--5h7-------------5h7-------------|--5h7----------------------------|
------0-0-0-0-0-0-----0-0-0-0-0-0-|------0-0-0-0-0-0-3-3-3-3-1--1-1-|
                                                                      
----------------------------------|----------------------------------|
----------------------------------|----------------------------------|
--5h7-------------5h7-------------|--5h7-----------------------------|
------0-0-0-0-0-0-----0-0-0-0-0-0-|------0-0-0-0-0-0-3-3-3-3-1-1-1-1-|
                                                                     
----------------------------------|---------------------------------|
----------------------------------|---------------------------------|
--5h7-------------5h7-------------|--5h7----------------------------|
------0-0-0-0-0-0-----0-0-0-0-0-0-|------0-0-0-0-0-0-3-3-3-3-1--1-1-|
                                                    
----------------------------|--------------------------|
----------------------------|--------------------------|
--5/7---7--7-7-7/5---5--5-5-|--5/8---8--8-8-8/5---7----|
----------------------------|--------------------------|
                                                                      
----------------------------------|----------------------------------|
----------------------------------|----------------------------------|
--5h7-------------5h7-------------|--5h7-------------5h7-------------|
------0-0-0-0-0-0-----0-0-0-0-0-0-|------0-0-0-0-0-0-----0-0-0-0-0-0-|
                                                    
----------------------------|--------------------------|
----------------------------|--------------------------|
--5/7---7--7-7-7/5---5--5-5-|--5/8---8--8-8-8/5---7----|
----------------------------|--------------------------|
                                                                              
--------------------------------------|--------------------------------------|
--------------------------------------|--------------------------------------|
--5h7---------------5h7---------------|--5h7---------------5h7---------------|
------0-0-0-0-0-0-0-----0-0-0-0-0-0-0-|------0-0-0-0-0-0-0-----0-0-0-0-0-0-0-|
                                                        
----------------------------|--------------------------|
----------------------------|--------------------------|
----------------------------|--------------------------|
--7/5---5--5-5-5/2---2--2-2-|--2/3---3--3-3-3/0---0----|
                                                                         
--------------------------------------|--------------------------------------|
--------------------------------------|--------------------------------------|
--5h7---------------5h7---------------|--5h7---------------5h7---------------|
------0-0-0-0-0-0-0-----0-0-0-0-0-0-0-|------0-0-0-0-0-0-0-----0-0-0-0-0-0-0-|
                                                        
----------------------------|--------------------------|
----------------------------|--------------------------|
----------------------------|--------------------------|
--7/5---5--5-5-5/2---2--2-2-|--2/3---3--3-3-3/0---0----|
                                                                         
-------------------------|-------------------------|-------------------------|
-------------------------|-------------------------|-------------------------|
-------------------7/8---|--5----5----5--5-5-------|-------------------------|
--0----0----0--0-0-------|-------------------3/1---|--1----1----1--1-1-3h0---|
                                                                         
-------------------------|-------------------------|-------------------------|
-------------------------|-------------------------|-------------------------|
---------------------7---|-------------------7/8---|--5----5----5--5-5-------|
--0----0----0--0-0-0-----|--0----0----0--0-0-------|-------------------3/1---|
                                                                              
-------------------------|-------------------------|-------------------------|
-------------------------|-------------------------|-------------------------|
-------------------------|---------------------7---|-------------------7/8---|
--1----1----1--1-1-3h0---|--0----0----0--0-0-0-----|--0----0----0--0-0-------|
                                                                              
-------------------------|-------------------------|-------------------------|
-------------------------|-------------------------|-------------------------|
--5----5----5--5-5-------|-------------------------|---------------------7---|
-------------------3/1---|--1----1----1--1-1-3h0---|--0----0----0--0-0-0-----|
                                                                           
-------------------------|-------------------------|-------------------------|
-------------------------|-------------------------|-------------------------|
-------------------7/8---|--5----5----5--5-5-------|-------------------------|
--0----0----0--0-0-------|-------------------3/1---|--1----1----1--1-1-3h0---|
                                                                    
----------------------------|--------------------------------------|
----------------------------|--------------------------------------|
----------------------------|--5h7---------------5h7---------------|
--0------0-0-0-0-0-0-0-0-0--|------0-0-0-0-0-0-0-----0-0-0-0-0-0-0-|
                                                                      
------------------------------------|--------------------------------------|
------------------------------------|--------------------------------------|
--5h7-------------------------------|--5h7---------------5h7---------------|
------0-0-0-0-0-0-0-3-3-3-3-1-1-1-1-|------0-0-0-0-0-0-0-----0-0-0-0-0-0-0-|
                                                                           
-----------------------------------|--------------------------------------|
-----------------------------------|--------------------------------------|
--5h7------------------------------|--5h7---------------5h7---------------|
------0-0-0-0-0-0-0-3-3-3-3-1--1-1-|------0-0-0-0-0-0-0-----0-0-0-0-0-0-0-|
                                                                        
------------------------------------|--------------------------------------|
------------------------------------|--------------------------------------|
--5h7-------------------------------|--5h7---------------5h7---------------|
------0-0-0-0-0-0-0-3-3-3-3-1-1-1-1-|------0-0-0-0-0-0-0-----0-0-0-0-0-0-0-|
                                                                 
-----------------------------------|----------------------------|
-----------------------------------|----------------------------|
--5h7------------------------------|--5/7---7--7-7-7/5---5--5-5-|
------0-0-0-0-0-0-0-3-3-3-3-1--1-1-|----------------------------|
                                           
--------------------------|----------------------------------|
--------------------------|----------------------------------|
--5/8---8--8-8-8/5---7----|--5h7-------------5h7-------------|
--------------------------|------0-0-0-0-0-0-----0-0-0-0-0-0-|
                                                                
----------------------------------|----------------------------|
----------------------------------|----------------------------|
--5h7-------------5h7-------------|--5/7---7--7-7-7/5---5--5-5-|
------0-0-0-0-0-0-----0-0-0-0-0-0-|----------------------------|
                                                                  
--------------------------|--------------------------------------|
--------------------------|--------------------------------------|
--5/8---8--8-8-8/5---7----|--5h7---------------5h7---------------|
--------------------------|------0-0-0-0-0-0-0-----0-0-0-0-0-0-0-|

--------------------------------------|----------------------------|
--------------------------------------|----------------------------|
--5h7---------------5h7---------------|----------------------------|
------0-0-0-0-0-0-0-----0-0-0-0-0-0-0-|--7/5---5--5-5-5/2---2--2-2-|
                                                          
--------------------------|--------------------------------------|
--------------------------|--------------------------------------|
--------------------------|--5h7---------------5h7---------------|
--2/3---3--3-3-3/0---0----|------0-0-0-0-0-0-0-----0-0-0-0-0-0-0-|
                                                           
--------------------------------------|----------------------------|
--------------------------------------|----------------------------|
--5h7---------------5h7---------------|----------------------------|
------0-0-0-0-0-0-0-----0-0-0-0-0-0-0-|--7/5---5--5-5-5/2---2--2-2-|
                                                              
--------------------------|----------------------------------|
--------------------------|----------------------------------|
--------------------------|--5/7-------------5/7-------------|
--2/3---3--3-3-3/0---0----|------0-0-0-0-0-0-----0-0-0-0-0-0-|

----------------------------------|-------------------|--------------||
----------------------------------|-------------------|--------------||
--5/7-----------------------------|-------------------|--------------||
------0-0-0-0-0-0-3-0-0-1-0-0-3-1-|--0----------------|--------------||
Composição de Jon Schaffer
Colaboração e revisão:
  • Taino Vieira
25 exibições

0 comentários

Ver todos os comentários

Conseguiu tocar?

0 Tocaram 0 Ainda não

Grave um vídeo tocando Last December e nos envie!

00:00 / 00:00
outros vídeos desta música
repetir qualidade Automático
Outros vídeos desta música
00:00 / 00:00
Automático

Cifra Club Pro

Aproveite o Cifra Club com benefícios exclusivos e sem anúncios
Cifra Club Pro
Aproveite o Cifra Club com benefícios exclusivos e sem anúncios
OK