Cifra Club

Aprenda

Mystical End

Iced Earth

Tab de baixo: Principal
tune down
                                                                    
F#||-------------------------------|-------------------------------|
C#||--7-7-8-7-10-8-7--7-7-8--------|--7-7-8-7-10-8-7--7-7-8--------|
G#||-------------------------10----|-------------------------10----|
C#||-------------------------------|-------------------------------|
                                                     
----------------------------------|-------------------------------|
--7-7-8-7-10-8-7--7-7-8-7-10-8-7--|--7-7-8-7-10-8-7--7-7-8--------|
----------------------------------|-------------------------10----|
----------------------------------|-------------------------------|
                                                                
-------------------------------|-------------------------------|
--7-7-8-7-10-8-7--7-7-8--------|--7-7-8-7-10-8-7--7-7-8--------|
-------------------------10----|-------------------------10----|
-------------------------------|-------------------------------|
                                                            
----------------------------------|-------------------------------|
--7-7-8-7-10-8-7--7-7-8-7-10-8-7--|--7-7-8-7-10-8-7--7-7-8--------|
----------------------------------|-------------------------10----|
----------------------------------|-------------------------------|
                                           
-------------------------|-------------------------|
-------------------------|-------------------------|
--5-----5---5-------3----|--5-----5---5-------5----|
-----0----0----0---------|-----0----0----0---------|
                                                               
--------------------------------|--------------------------------|
--------------------------------|--------------------------------|
--3--3--3---3---5---5---3-3-3-3-|--6--6--6---6---5---5---6-6-6-6-|
----------0---0---0---0---------|----------0---0---0---0---------|
                                                    
-------------------------|-------------------------|
-------------------------|-------------------------|
--5-----5---5-------3----|--5-----5---5-------5----|
-----0----0----0---------|-----0----0----0---------|
                                                                  
--------------------------------|--------------------------------|
--------------------------------|--------------------------------|
--3--3--3---3---5---5---3-3-3-3-|--6--6--6---6---5---5---6-6-6-6-|
----------0---0---0---0---------|----------0---0---0---0---------|
                                                    
-------------------------|-------------------------|
-------------------------|-------------------------|
--5-----5---5-------3----|--5-----5---5-------5----|
-----0----0----0---------|-----0----0----0---------|
                                                                  
--------------------------------|--------------------------------|
--------------------------------|--------------------------------|
--3--3--3---3---5---5---3-3-3-3-|--6--6--6---6---5---5---6-6-6-6-|
----------0---0---0---0---------|----------0---0---0---0---------|
                                           
-------------------------|-------------------------|
-------------------------|-------------------------|
--5-----5---5-------3----|--5-----5---5-------5----|
-----0----0----0---------|-----0----0----0---------|
                                                                  
--------------------------------|--------------------------------|
--------------------------------|--------------------------------|
--3--3--3---3---5---5---3-3-3-3-|--6--6--6---6---5---5---6-6-6-6-|
----------0---0---0---0---------|----------0---0---0---0---------|
                                         
----------------------------------------|
----------------------------------------|
--5-5-5-5-5-5-5-5-5-5-5-5-5-5-5-5-5--5--|
----------------------------------------|
                                     
---------------------------------------|
---------------------5-4-5-7-5-4-5-4-0-|
--3-3-3-3-3-3-3-3-3--------------------|
---------------------------------------|
                                      
----------------------------------------|
----------------------------------------|
--5-5-5-5-5-5-5-5-5-5-5-5-5-5-5-5-5--5--|
----------------------------------------|
                                        
------------------------------------------|
------------------------------------------|
--3-3-3-3-3-3-3-3-3-3-3-6-6---6-6-6-6-6-6-|
------------------------------------------|
                                         
----------------------------------------|
----------------------------------------|
--5-5-5-5-5-5-5-5-5-5-5-5-5-5-5-5-5--5--|
----------------------------------------|
                                    
---------------------------------------|
---------------------5-4-5-7-5-4-5-4-0-|
--3-3-3-3-3-3-3-3-3--------------------|
---------------------------------------|
                                         
----------------------------------------|
----------------------------------------|
--5-5-5-5-5-5-5-5-5-5-5-5-5-5-5-5-5--5--|
----------------------------------------|
                                                              
------------------------------------------|-------------------------|
------------------------------------------|-------------------------|
--3-3-3-3-3-3-3-3-3-3-3-6-6---6-6-6-6-6-6-|--5-----5---5-------3----|
------------------------------------------|-----0----0----0---------|
                                                           
-------------------------|--------------------------------|
-------------------------|--------------------------------|
--5-----5---5--5----5----|--3--3--3---3---5---5---3-3-3-3-|
-----0----0--------------|----------0---0---0---0---------|

--------------------------------|-------------------------|
--------------------------------|-------------------------|
--6--6--6---6---5---5---6-6-6-6-|--5-----5---5-------3----|
----------0---0---0---0---------|-----0----0----0---------|
                                                           
-------------------------|--------------------------------|
-------------------------|--------------------------------|
--5-----5---5--5----5----|--3--3--3---3---5---5---3-3-3-3-|
-----0----0--------------|----------0---0---0---0---------|
                                                                        
--------------------------------|----------------------|----------------------|
--------------------------------|----------------------|----------------------|
--6--6--6---6---5---5---6-6-6-6-|------------3---3-----|------------3---3-----|
----------0---0---0---0---------|--0---0---------------|--0---0---------------|
                                                           
--------------------|--------------------|--------------------|
--------------------|--------------------|--------------------|
-----------3--------|-----------3--------|-----------3--------|
--0-----------------|--0-----------------|--0-----------------|
                                                               
--------------------|--------------------|--------------------|
--------------------|--------------------|--------------------|
-----------3--------|-----------3--------|-----------3--------|
--0-----------------|--0-----------------|--0-----------------|

--------------------|--------------------|--------------------|
--------------------|--------------------|--------------------|
-----------3--------|-----------3--------|-----------3--------|
--0-----------------|--0-----------------|--0-----------------|
                                                              
--------------------|--------------------|-------------------|
--------------------|--------------------|-------------------|
-----------3--------|-----------3--------|-------------------|
--0-----------------|--0-----------------|--0----------------|
                                                                
------------------|------------------|-------------------------|
------------------|------------------|-------------------------|
------------------|------------------|---------------6-6-6-6-3-|
------------------|------------------|--0----------------------|
                                                                 
-------------------|--------------------------------------------|
-------------------|--------------------------------------------|
--5----------------|--5-5-5-5-5-5-5-5-5-5-5-5-5-5-5-5-6-6-6-6-3-|
-------------------|--------------------------------------------|
                                   
----------------------------------------|
----------------------------------------|
--5-5-5-5-5-5-5-5-5-5-5-6-5-6-8-6-5-5---|
--------------------------------------8-|
                                             
--------------------------------------------|
--------------------------------------------|
--5-5-5-5-5-5-5-5-5-5-5-5-5-5-5-5-6-6-6-6-3-|
--------------------------------------------|
                                   
----------------------------------------|
----------------------------------------|
--5-5-5-5-5-5-5-5-5-5-5-6-5-6-8-6-5-5---|
--------------------------------------8-|
                                      
--------------------------------------------|
--------------------------------------------|
--5-5-5-5-5-5-5-5-5-5-5-5-5-5-5-5-6-6-6-6-3-|
--------------------------------------------|
                                 
----------------------------------------|
----------------------------------------|
--5-5-5-5-5-5-5-5-5-5-5-6-5-6-8-6-5-5---|
--------------------------------------8-|
                                             
--------------------------------------------|
--------------------------------------------|
--5-5-5-5-5-5-5-5-5-5-5-5-5-5-5-5-6-6-6-6-3-|
--------------------------------------------|
                                                                 
----------------------------------------|-----------------------|
----------------------------------------|-----------------------|
--5-5-5-5-5-5-5-5-5-5-5-6-5-6-8-6-5-5---|--5----------5-6--6--3-|
--------------------------------------8-|-----------------------|
                                                                 
-----------------------|-----------------------|---------------------|
-----------------------|-----------------------|---------------------|
--5----------5-6--6--3-|--5----------5-6--6--3-|--5--------8----6----|
-----------------------|-----------------------|---------------------|
                                                                        
-----------------------|-----------------------|-----------------------|
-----------------------|-----------------------|-----------------------|
--5----------5-6--6--3-|--5----------5-6--6--3-|--5----------5-6--6--3-|
-----------------------|-----------------------|-----------------------|
                                                         
---------------------|----------------------------------|
---------------------|----------------------------------|
--5--------8----6----|--5---5---5---5---5---5---3-3-3-3-|
---------------------|----0---0---0---0---0---0---------|
                                                                
----------------------------------|----------------------------------|
----------------------------------|----------------------------------|
--5---5---5---5---5---5---6-6-6-6-|--5---5---5---5---5---5---3-3-3-3-|
----0---0---0---0---0---0---------|----0---0---0---0---0---0---------|
                                                                 
----------------------------------|----------------------------------|
----------------------------------|----------------------------------|
--5---5---5---5---5---5---6-6-6-6-|--5---5---5---5---5---5---3-3-3-3-|
----0---0---0---0---0---0---------|----0---0---0---0---0---0---------|
                                                                      
----------------------------------|----------------------------------|
----------------------------------|----------------------------------|
--5---5---5---5---5---5---6-6-6-6-|--5---5---5---5---5---5---3-3-3-3-|
----0---0---0---0---0---0---------|----0---0---0---0---0---0---------|
                                                               
----------------------------------|----------------------------------|
----------------------------------|----------------------------------|
--5---5---5---5---5---5---6-6-6-6-|--5---5---5---5---5---5---3-3-3-3-|
----0---0---0---0---0---0---------|----0---0---0---0---0---0---------|
                                                                      
----------------------------------|----------------------------------|
----------------------------------|----------------------------------|
--5---5---5---5---5---5---6-6-6-6-|--5---5---5---5---5---5---3-3-3-3-|
----0---0---0---0---0---0---------|----0---0---0---0---0---0---------|
                                                    
----------------------------------|----------------------|
----------------------------------|----------------------|
--5---5---5---5---5---5---6-6-6-6-|----------------------|
----0---0---0---0---0---0---------|--0-----------1--1--1-|
                                                                     
---------------------------|----------------------------------------|
---------------------------|----------------------------------------|
-----------8-8-8-8-6--6--6-|--5-5-5-5-5-5-5-5-5-5-5-5-5-5-5-5-5--5--|
--0------------------------|----------------------------------------|
                                     
---------------------------------------|
---------------------5-4-5-7-5-4-5-4-0-|
--3-3-3-3-3-3-3-3-3--------------------|
---------------------------------------|
                                         
----------------------------------------|
----------------------------------------|
--5-5-5-5-5-5-5-5-5-5-5-5-5-5-5-5-5--5--|
----------------------------------------|
                                        
------------------------------------------|
------------------------------------------|
--3-3-3-3-3-3-3-3-3-3-3-6-6---6-6-6-6-6-6-|
------------------------------------------|
                                     
----------------------------------------|
----------------------------------------|
--5-5-5-5-5-5-5-5-5-5-5-5-5-5-5-5-5--5--|
----------------------------------------|
                                   
---------------------------------------|
---------------------5-4-5-7-5-4-5-4-0-|
--3-3-3-3-3-3-3-3-3--------------------|
---------------------------------------|
                                         
----------------------------------------|
----------------------------------------|
--5-5-5-5-5-5-5-5-5-5-5-5-5-5-5-5-5--5--|
----------------------------------------|
                                                                           
------------------------------------------|-------------------------------|
------------------------------------------|--7-7-8-7-10-8-7--7-7-8--------|
--3-3-3-3-3-3-3-3-3-3-3-6-6---6-6-6-6-6-6-|-------------------------10----|
------------------------------------------|-------------------------------|
                                                               
-------------------------------|------------------7-7-8-7-10-8-7--|
--7-7-8-7-10-8-7--7-7-8--------|--7-7-8-7-10-8-7------------------|
-------------------------10----|----------------------------------|
-------------------------------|----------------------------------|
                                                                
-------------------------------|-------------------------------|
--7-7-8-7-10-8-7--7-7-8--------|--7-7-8-7-10-8-7--7-7-8--------|
-------------------------10----|-------------------------10----|
-------------------------------|-------------------------------|
                                                               
-------------------------------|------------------7-7-8-7-10-8-7--|
--7-7-8-7-10-8-7--7-7-8--------|--7-7-8-7-10-8-7------------------|
-------------------------10----|----------------------------------|
-------------------------------|----------------------------------|
                                                                      
-------------------------------|----------------------|----------------------|
--7-7-8-7-10-8-7--7-7-8--------|----------------------|----------------------|
-------------------------10----|------------3---3-----|------------3---3-----|
-------------------------------|--0---0---------------|--0---0---------------|
                                                        
-------------------------------------------------------|
-------------------------------------------------------|
-------------------------------------------------------|
--0----0-0-0-0-0-0-0-0-0-0-0-0-0-0-0-0-0-0-0-0-0-0-0-0-|
                                                                   
------------------------------------------------------------------|
------------------------------------------------------------------|
------------------------------------------------------------------|
--0-0-0-0-0-0-0-0-0-0-0-0-0-0-0-0-0-0-0-0-0-0-0-0-0-0-0-0-0-0-0-0-|
                                                                          
----------------------------------|-------------------|------------------|
----------------------------------|-------------------|------------------|
--5---5---5---5---5---5---5---5---|-------------------|------------------|
----0---0---0---0---0---0---0---0-|--------------0----|------------------|
                    
------------------||
------------------||
------------------||
------------------||
Composição de Jon Schaffer
Colaboração e revisão:
  • Taino Vieira
19 exibições

0 comentários

Ver todos os comentários

Conseguiu tocar?

0 Tocaram 0 Ainda não

Grave um vídeo tocando Mystical End e nos envie!

00:00 / 00:00
outros vídeos desta música
repetir qualidade Automático
Outros vídeos desta música
00:00 / 00:00
Automático

Cifra Club Pro

Aproveite o Cifra Club com benefícios exclusivos e sem anúncios
Cifra Club Pro
Aproveite o Cifra Club com benefícios exclusivos e sem anúncios
OK