Cifra Club

Aprenda

Path Of Glory

Iced Earth

Cifra: Principal (violão e guitarra)
tom: A#
Tuning: Eb

Riff 1 (acoustic)
eb|-------2-3-2---0--2-----0-2-----|
Bb|-----3-------3------3-------3---|
Gb|---2------------------2-------2-|
Db|-0------------------------------|
Ab|--------------------------------|
Eb|--------------------------------|
   "For ages now...."
eb|-------3--------------3--------|
Bb|-----3----3---------3----3-----|
Gb|---2--------2-----2--------2---|
Db|-3------------3-2------------2-|
Ab|-------------------------------|
Eb|-------------------------------|
   

Riff 2 (acoustic)
eb|-------0------0------0------|
Bb|-----3----3------3------3---|
Gb|---2--------2------2------2-|
Db|-0--------------------------|
Ab|----------------------------|
Eb|----------------------------|
   "It's beyond this life..."
eb|-------0-------------0--------|
Bb|-----3---3---------3----3-----|
Gb|---2-------2-----2--------2---|
Db|-3-----------3-2------------2-|
Ab|------------------------------|
Eb|------------------------------|

Riff 3 (distortion)
eb|-------------------------------------|
Bb|-------------------------------------|
Gb|-------------------------------------|
Db|-5/7-----7----5/7-----7--------------|
Ab|-3/5-5-5-5----3/5-5-5-5--3--3/5---3\-|
Eb|-3/5-5-5-5----3/5-5-5-5--1--1/3---1\-|
        * *          * * 
   "Many moments of my life..."

Play Riff 1    "There's a light..."
Play Riff 2    "No longer struggle..."
Play Riff 3    "Come join..."

Riff 4 (Solo Rhythm)
eb|-----------------------------------------------------------|
Bb|-----------------------------------------------------------|
Gb|-----------------------------------------------------------|
Db|-5/7-----10\7-----5/7-----10\7-----------------------------|
Ab|-3/5-5-5--8\5-5-5-3/5-5-5--8\5-5-5-3--3---3-5--------3-----|
Eb|-----------------------------------1--1-0-1-3--0-3-5---5~~-|
        * *      * *     * *      * *    * * *    * * *   
eb|-----------------------------------------------------------|
Bb|-----------------------------------------------------------|
Gb|-----------------------------------------------------------|
Db|-5/7-----10\7-----5/7-----10\7-----------------------3-3~~-|
Ab|-3/5-5-5--8\5-5-5-3/5-5-5--8\5-5-5-5--5---5-7--0-3-5-------|
Eb|-----------------------------------3--3-0-3-5--------------|
        * *      * *     * *      * *    * * *    * * *

Riff 5
eb|-----------------------------------------------------------|
Bb|-----------------------------------------------------------|
Gb|-----------------------------------------------------------|
Db|-------3---3-2-------3---3-3------3---3-2------3---3-3-----|
Ab|-5~~-----5-----3~~-----5-----5~~----5-----3~~----5-----5-5-|
Eb|-----------------------------------------------------------|
            *             *            *            *     * * 
eb|--------------------------|
Bb|--------------------------|
Gb|--------------------------|
Db|-7^r--7~~-----------------|
Ab|-----------7^r-7~~--8-7-5-|
Eb|--------------------------|

Play Riff 3    "Many moments..."
Play Riff 5    

Ending:
eb|---------------------------------|
Bb|---------------------------------|
Gb|---------------------------------|
Db|-7^r--7~~-----------------5-7-7\-|
Ab|-----------7^r-7~~--8-7-5-3-5-5\-|
Eb|--------------------------3-5-5\-|

notation:
^   =  bend [ ^ = half, ^^ = whole, etc. ]
^r  =  bend and release
x   =  mute with fret-hand
*   =  mute with palm-hand
X\\ =  pick slide
h   =  hammer-on
p   =  pull-off
~   =  vibrato
t   =  tap-on
/   =  slide up
\   =  slide down
h.  =  harmonics
ah  =  artificial harmonic
(9) =  ghost note
tm  =  trem picking
tr  =  trill
Colaboração e revisão:
  • Taino Vieira
308 exibições
    • ½ Tom
    • A
    • Bb
    • B
    • C
    • Db
    • D
    • Eb
    • E
    • F
    • F#
    • G
    • Ab
  • Adicionar à lista

    0 comentários

    Ver todos os comentários

    Conseguiu tocar?

    0 Tocaram 0 Ainda não

    Grave um vídeo tocando Path Of Glory e nos envie!

    00:00 / 00:00
    outros vídeos desta música
    repetir qualidade Automático
    Outros vídeos desta música
    00:00 / 00:00
    Automático

    Cifra Club Pro

    Aproveite o Cifra Club com benefícios exclusivos e sem anúncios
    Cifra Club Pro
    Aproveite o Cifra Club com benefícios exclusivos e sem anúncios
    OK