Cifra Club

Aprenda

Slave to the darkness

Iced Earth

Tab de baixo: Principal
Listen for Timing

F#||--------------------|--------------------|---------------------|
C#||--------------------|--------------------|---------------------|
G#||--------------------|------------------3-|--5--------3---------|
D#||--5---------------3-|--5-----------------|-------------------3-|
                  
--------------------||---------------------|--------------------|
--------------------||*--------------------|--------------------|
--------------------||*--------------------|------------------3-|
--5---------------3-||---5---------------3-|--5-----------------|
                                                                      
---------------------|---------------------||------------------------|
---------------------|--------------------*||------------------------|
--5--------3---------|--------------------*||--0---0---0---0---1--1--|
-------------------3-|--5---------------3--||------------------------|
                                                                           
------------------------|------------------------|------------------------|
------------------------|------------------------|------------------------|
--0---0---0---0---1--1--|-------------3---3---1--|--0---0---0---0---1--1--|
------------------------|--3---3---3-------------|------------------------|
                                                             
|---------------------------------|--------------------------------|
|*--------------------------------|--------------------------------|
|*--0-0-0-0-0-0-0-0-0-0-0-0-1--1--|--0-0-0-0-0-0-0-0-0-0-0-0-1--1--|
|---------------------------------|--------------------------------|
                                                                
----------------------------------|---------------------------------||
----------------------------------|--------------------------------*||
------------------3-3-3-3-3-3-1-1-|--0-0-0-0-0-0-0-0-0-0-0-0-1--1--*||
--3-3-3-3-3-3-3-3-----------------|---------------------------------||
                                                                      
----------------------------------|----------------------------------|
----------------------------------|----------------------------------|
----------------------------------|----------------------------------|
--5-5-5-5-5-5-5-5-5-5-5-5-5-5-5-5-|--5-5-5-5-5-5-5-5-5-5-5-5-5-5-5-5-|
                                                                      
----------------------------------|----------------------------------|
----------------------------------|----------------------------------|
----------------------------------|----------------------------------|
--3-3-3-3-3-3-3-3-3-3-3-3-3-3-3-3-|--5-5-5-5-5-5-5-5-5-5-5-5-5-5-5-5-|
                                                                    
|---------------------------------|--------------------------------|
|*--------------------------------|--------------------------------|
|*--0-0-0-0-0-0-0-0-0-0-0-0-1--1--|--0-0-0-0-0-0-0-0-0-0-0-0-1--1--|
|---------------------------------|--------------------------------|
                                                                      
----------------------------------|---------------------------------||
----------------------------------|--------------------------------*||
------------------3-3-3-3-3-3-1-1-|--0-0-0-0-0-0-0-0-0-0-0-0-1--1--*||
--3-3-3-3-3-3-3-3-----------------|---------------------------------||
                                                                       
-----------------------------------|----------------------------------|
*----------------------------------|----------------------------------|
*----------------------------------|----------------------------------|
---5-5-5-5-5-5-5-5-5-5-5-5-5-5-5-5-|--5-5-5-5-5-5-5-5-5-5-5-5-5-5-5-5-|
                                                                        
----------------------------------|-----------------------------------||
----------------------------------|----------------------------------*||
----------------------------------|----------------------------------*||
--3-3-3-3-3-3-3-3-3-3-3-3-3-3-3-3-|--5-5-5-5-5-5-5-5-5-5-5-5-5-5-5-5--||

---------------------------------|------------------------------|
*--------------------------------|------------------------------|
*--------------------------------|------------------------------|
---3/5-5-5-5--5-5-3/5-5-5-5--5-5-|--3/5-5-5-5--5-5-3/5-5--6--6--|
                                                                
--------------------------------|------------------------------|
--------------------------------|------------------------------|
--------------------------------|-----------------3-3-3-3---1--|
--1/3-3-3-3--3-3-1/3-3-3-3--3-3-|--1/3-3-3-3--3-3--------------|
                                                          
--------------------------------|------------------------------|
--------------------------------|------------------------------|
--------------------------------|------------------------------|
--3/5-5-5-5--5-5-3/5-5-5-5--5-5-|--3/5-5-5-5--5-5-3/5-5--6--6--|

--------------------------------|------------------------------|
--------------------------------|------------------------------|
--------------------------------|-----------------3-3-3-3---1--|
--1/3-3-3-3--3-3-1/3-3-3-3--3-3-|--1/3-3-3-3--3-3--------------|
                                                                 
|-----------------------------------|----------------------------------|
|*----------------------------------|----------------------------------|
|*----------------------------------|----------------------------------|
|---5-5-5-5-5-5-5-5-5-5-5-5-5-5-5-5-|--3-3-3-3-3-3-3-3-3-3-3-3-3-3-3-3-|
                                                               
----------------------------------|--------------------------------||
----------------------------------|-------------------------------*||
----------------------------------|------------------3-3-3-3---1--*||
--1-1-1-1-1-1-1-1-1-1-1-1-1-1-1-1-|--5-5-5-5-5-5-5-5---------------||
                                                             
--------------------------------|------------------------------|
--------------------------------|------------------------------|
--------------------------------|------------------------------|
--3/5-5-5-5--5-5-3/5-5-5-5--5-5-|--3/5-5-5-5--5-5-3/5-5--6--6--|
                                                                
--------------------------------|------------------------------|
--------------------------------|------------------------------|
--------------------------------|-----------------3-3-3-3---1--|
--1/3-3-3-3--3-3-1/3-3-3-3--3-3-|--1/3-3-3-3--3-3--------------|
                                                                
--------------------------------|------------------------------|
--------------------------------|------------------------------|
--------------------------------|------------------------------|
--3/5-5-5-5--5-5-3/5-5-5-5--5-5-|--3/5-5-5-5--5-5-3/5-5--6--6--|
                                                         
--------------------------------|------------------------------|
--------------------------------|------------------------------|
--------------------------------|-----------------3-3-3-3---1--|
--1/3-3-3-3--3-3-1/3-3-3-3--3-3-|--1/3-3-3-3--3-3--------------|
                                                                    
|---------------------------------|--------------------------------|
|*--------------------------------|--------------------------------|
|*--0-0-0-0-0-0-0-0-0-0-0-0-1--1--|--0-0-0-0-0-0-0-0-0-0-0-0-1--1--|
|---------------------------------|--------------------------------|
                                                                
----------------------------------|---------------------------------||
----------------------------------|--------------------------------*||
------------------3-3-3-3-3-3-1-1-|--0-0-0-0-0-0-0-0-0-0-0-0-1--1--*||
--3-3-3-3-3-3-3-3-----------------|---------------------------------||
                                                                 
-----------------------------------|----------------------------------|
*----------------------------------|----------------------------------|
*----------------------------------|----------------------------------|
---5-5-5-5-5-5-5-5-5-5-5-5-5-5-5-5-|--5-5-5-5-5-5-5-5-5-5-5-5-5-5-5-5-|

----------------------------------|-----------------------------------||
----------------------------------|----------------------------------*||
----------------------------------|----------------------------------*||
--3-3-3-3-3-3-3-3-3-3-3-3-3-3-3-3-|--5-5-5-5-5-5-5-5-5-5-5-5-5-5-5-5--||
                                                                       
-----------------------------------|----------------------------------|
*----------------------------------|----------------------------------|
*----------------------------------|----------------------------------|
---5-5-5-5-5-5-5-5-5-5-5-5-5-5-5-5-|--3-3-3-3-3-3-3-3-3-3-3-3-3-3-3-3-|
                                                                     
----------------------------------|--------------------------------||
----------------------------------|-------------------------------*||
----------------------------------|------------------3-3-3-3---1--*||
--1-1-1-1-1-1-1-1-1-1-1-1-1-1-1-1-|--5-5-5-5-5-5-5-5---------------||
                     
-------------------||
-------------------||
-------------------||
--0----------------||
Colaboração e revisão:
  • Taino Vieira
23 exibições

0 comentários

Ver todos os comentários

Conseguiu tocar?

0 Tocaram 0 Ainda não

Grave um vídeo tocando Slave to the darkness e nos envie!

00:00 / 00:00
outros vídeos desta música
repetir qualidade Automático
Outros vídeos desta música
00:00 / 00:00
Automático

Cifra Club Pro

Aproveite o Cifra Club com benefícios exclusivos e sem anúncios
Cifra Club Pro
Aproveite o Cifra Club com benefícios exclusivos e sem anúncios
OK