Cifra Club

Aprenda

Slave to the darkness

Iced Earth

Tab de bateria: Principal
Tempo : 100

36-bas
38-snare
42-hi-hat
43-floor tom
47-midi tom
49-crash
51-ride
                                           
C||--51---51---51---51---51--51--|--51---51---51---51---51--51--|
C||------------------------------|------------------------------|
C||------------------------------|------------------------------|
C||------------------------------|------------------------------|
C||------------------------------|------------------------------|
C||------------------------------|------------------------------|
                                                                
--51---51---51---51---51--51--|--51---51---51---51---51--51----|
------------------------------|--------------------------------|
------------------------------|--------------------------------|
------------------------------|--------------------------------|
------------------------------|-----------------------------43-|
------------------------------|-----------------------------36-|
                                                                  
|---51---51---51---51---51--51----|--51---51---51---51---51--51----|
|---------------------------------|--------------------------------|
|*--------------------------------|--------------------------------|
|*--------------------------------|--------------------------------|
|---43-------------------------43-|--43-------------------------43-|
|---36-------------------------36-|--36-------------------------36-|
                                                                 
--51---51---51--51----51--51----|--51---51---51---51---51--51-----||
--------------------------------|---------------------------------||
--------------------------------|--------------------------------*||
--------------------------------|--------------------------------*||
--43------------43-----------43-|--43-------------------------43--||
--36------------36-----------36-|--36-------------------------36--||
                                                                
--49---49---49---49-------49--|--49---49---49---49---------49--|
------------------------------|--------------------------------|
------------------------------|--------------------------------|
------------------------------|--------------------------------|
----------------------43------|---------------------43-43------|
--36---36---36---36-------36--|--36---36---36---36---------36--|
                                                          
--49---49---49-------49---49--|--49---49---49---49-------49--|
------------------------------|------------------------------|
------------------------------|------------------------------|
------------------------------|------------------------------|
----------------43------------|----------------------43------|
--36---36---36-------36---36--|--36---36---36---36-------36--|
                                             
|---42--42----42----42--42----42----42--42--|
|-------------------------------------------|
|*------------------------------------------|
|*---------38-------38-----38-------38------|
|-------------------------------------------|
|---36--36----36-36-----36----36-36-----36--|
                              
--42--42----42----42--42----42----42--42--|
------------------------------------------|
------------------------------------------|
---------38-------38-----38-------38------|
------------------------------------------|
--36--36----36-36-----36----36-36-----36--|
                                           
--42--42----42----42--42----42----42--42--|
------------------------------------------|
------------------------------------------|
---------38-------38-----38-------38------|
------------------------------------------|
--36--36----36-36-----36----36-36-----36--|
                                             
--42--42----42----42--42----42----49--49---||
-------------------------------------------||
------------------------------------------*||
---------38-------38-----38-------38--38--*||
-------------------------------------------||
--36--36----36-36-----36----36-36----------||
                                                   
--51----51----51----51----51----51----51----51----|
--------------------------------------------------|
--------------------------------------------------|
--------38----------38----------38----------38----|
--------------------------------------------------|
--36-36-36-36-36-36-36-36-36-36-36-36-36-36-36-36-|
                                                   
--51----51----51----51----51----51----51----51----|
--------------------------------------------------|
--------------------------------------------------|
--------38----------38----------38----------38----|
--------------------------------------------------|
--36-36-36-36-36-36-36-36-36-36-36-36-36-36-36-36-|
                                                   
--------------51----51----51----51----51----51----|
--------------------------------------------------|
--------------------------------------------------|
--38-38-38-38-------38----------38----------38----|
--------------------------------------------------|
--36-36-36-36-36-36-36-36-36-36-36-36-36-36-36-36-|
                                  
--51----51----51----51----51----51----51----51----|
--------------------------------------------------|
--------------------------------------------------|
--------38----------38----------38----------38----|
--------------------------------------------------|
--36-36-36-36-36-36-36-36-36-36-36-36-36-36-36-36-|
                                             
|---49--42----42----42--42----42----42--42--|
|-------------------------------------------|
|*------------------------------------------|
|*---------38-------38-----38-------38------|
|-------------------------------------------|
|---36--36----36-36-----36----36-36-----36--|
                                           
--42--42----42----42--42----42----42--42--|
------------------------------------------|
------------------------------------------|
---------38-------38-----38-------38------|
------------------------------------------|
--36--36----36-36-----36----36-36-----36--|
                                           
--42--42----42----42--42----42----42--42--|
------------------------------------------|
------------------------------------------|
---------38-------38-----38-------38------|
------------------------------------------|
--36--36----36-36-----36----36-36-----36--|
                                           
--42--42----42----42--42----42----49--49---||
-------------------------------------------||
------------------------------------------*||
---------38-------38-----38-------38--38--*||
-------------------------------------------||
--36--36----36-36-----36----36-36----------||
                                                    
---51----51----51----51----51----51----51----51----|
---------------------------------------------------|
*--------------------------------------------------|
*--------38----------38----------38----------38----|
---------------------------------------------------|
---36-36-36-36-36-36-36-36-36-36-36-36-36-36-36-36-|
                                             
--51----51----51----51----51----51----51----51----|
--------------------------------------------------|
--------------------------------------------------|
--------38----------38----------38----------38----|
--------------------------------------------------|
--36-36-36-36-36-36-36-36-36-36-36-36-36-36-36-36-|
                                               
--------------51----51----51----51----51----51----|
--------------------------------------------------|
--------------------------------------------------|
--45-45-------------38----------38----------38----|
--------43-43-------------------------------------|
--36-36-36-36-36-36-36-36-36-36-36-36-36-36-36-36-|
                                                     
--51----51----51----51----51----51----51----51-----||
---------------------------------------------------||
--------------------------------------------------*||
--------38----------38----------38----------38----*||
---------------------------------------------------||
--36-36-36-36-36-36-36-36-36-36-36-36-36-36-36-36--||
                                                                     
---49----42------42--------42----|--42----42----------------42------|
---------------------------------|----------------47----------------|
*--------------------------------|-------------------45-------------|
*--------38----------------38----|--------38----------------38------|
---------------------------------|----------------------43------43--|
---36--------36--36-36-36--------|--36--------36--------------------|
                                                          
--49----42------42--------42----|--42----42----------------42------|
--------------------------------|----------------47----------------|
--------------------------------|-------------------45-------------|
--------38----------------38----|--------38----------------38------|
--------------------------------|----------------------43------43--|
--36--------36--36-36-36--------|--36--------36--------------------|
                                                             
--49----42------42--------42----|--42----42----------------42------|
--------------------------------|----------------47----------------|
--------------------------------|-------------------45-------------|
--------38----------------38----|--------38----------------38------|
--------------------------------|----------------------43------43--|
--36--------36--36-36-36--------|--36--------36--------------------|
                                                                          
--49----42------42--------42----|--42----42------------------------------|
--------------------------------|----------------47----------------------|
--------------------------------|-------------------45----45-45-45-------|
--------38----------------38----|--------38------------------------------|
--------------------------------|----------------------43----------43-43-|
--36--------36--36-36-36--------|--36--------36--------------------------|
                                             
|---49--51----51----51--51----51----51--51--|
|-------------------------------------------|
|*------------------------------------------|
|*---------38-------38-----38-------38------|
|-------------------------------------------|
|---36--36----36-36-----36----36-36-----36--|
                                           
--51--51----51----51--51----51----51--51--|
------------------------------------------|
------------------------------------------|
---------38-------38-----38-------38------|
------------------------------------------|
--36--36----36-36-----36----36-36-----36--|
                                  
--49--51----51----51--51----51----51--51--|
------------------------------------------|
------------------------------------------|
---------38-------38-----38-------38------|
------------------------------------------|
--36--36----36-36-----36----36-36-----36--|
                                             
--51--51----51----51-----------------------||
-------------------------------------------||
------------------------------------------*||
---------38-------38--38-38-38-38-38--38--*||
-------------------------------------------||
--36--36----36-36--------------------------||
                                                
--51----51----51----51----51----51----51----51----|
--------------------------------------------------|
--------------------------------------------------|
--------38----------38----------38----------38----|
--------------------------------------------------|
--36-36-36-36-36-36-36-36-36-36-36-36-36-36-36-36-|
                                                   
--51----51----51----51----51----51----51----51----|
--------------------------------------------------|
--------------------------------------------------|
--------38----------38----------38----------38----|
--------------------------------------------------|
--36-36-36-36-36-36-36-36-36-36-36-36-36-36-36-36-|
                                                   
--51----51----51----51----51----51----51----51----|
--------------------------------------------------|
--------------------------------------------------|
--------38----------38----------38----------38----|
--------------------------------------------------|
--36-36-36-36-36-36-36-36-36-36-36-36-36-36-36-36-|
                                                   
--51----51----51----51----51----------------------|
--------------------------------------------------|
--------------------------------------------------|
--------38----------38----------38-38-38-38-38----|
--------------------------------------------------|
--36-36-36-36-36-36-36-36-36-36-36-36-36-36-36-36-|
                                             
--51----51----51----51----51----51----51----51----|
--------------------------------------------------|
--------------------------------------------------|
--------38----------38----------38----------38----|
--------------------------------------------------|
--36-36-36-36-36-36-36-36-36-36-36-36-36-36-36-36-|
                                                   
--51----51----51----51----51----51----51----51----|
--------------------------------------------------|
--------------------------------------------------|
--------38----------38----------38----------38----|
--------------------------------------------------|
--36-36-36-36-36-36-36-36-36-36-36-36-36-36-36-36-|
                                                   
--51----51----51----51----51----51----51----51----|
--------------------------------------------------|
--------------------------------------------------|
--------38----------38----------38----------38----|
--------------------------------------------------|
--36-36-36-36-36-36-36-36-36-36-36-36-36-36-36-36-|
                                                   
--51----51----51----51----51----------------------|
--------------------------------------------------|
--------------------------------------------------|
--------38----------38----------38-38-38-38-38----|
--------------------------------------------------|
--36-36-36-36-36-36-36-36-36-36-36-36-36-36-36-36-|
                                   
|---42--42----42----42--42----42----42--42--|
|-------------------------------------------|
|*------------------------------------------|
|*--38-----38-------38-----38-------38------|
|-------------------------------------------|
|-------36----36-36-----36----36-36-----36--|
                                           
--42--42----42----42--42----42----42--42--|
------------------------------------------|
------------------------------------------|
--38-----38-------38-----38-------38------|
------------------------------------------|
------36----36-36-----36----36-36-----36--|
                                           
--42--42----42----42--42----42----42--42--|
------------------------------------------|
------------------------------------------|
--38-----38-------38-----38-------38------|
------------------------------------------|
------36----36-36-----36----36-36-----36--|
                                             
--42--42----42----42--42----42----49--49---||
-------------------------------------------||
------------------------------------------*||
--38-----38-------38-----38-------38--38--*||
-------------------------------------------||
------36----36-36-----36----36-36----------||
                                                    
---51----51----51----51----51----51----51----51----|
---------------------------------------------------|
*--------------------------------------------------|
*--------38----------38----------38----------38----|
---------------------------------------------------|
---36-36-36-36-36-36-36-36-36-36-36-36-36-36-36-36-|
                                                   
--51----51----51----51----51----51----51----51----|
--------------------------------------------------|
--------------------------------------------------|
--------38----------38----------38----------38----|
--------------------------------------------------|
--36-36-36-36-36-36-36-36-36-36-36-36-36-36-36-36-|
                                                   
--------------51----51----51----51----51----51----|
--------------------------------------------------|
--------------------------------------------------|
--45-45-------------38----------38----------38----|
--------43-43-------------------------------------|
--36-36-36-36-36-36-36-36-36-36-36-36-36-36-36-36-|
                                                     
--51----51----51----51----51----51----51----51-----||
---------------------------------------------------||
--------------------------------------------------*||
--------38----------38----------38----------38----*||
---------------------------------------------------||
--36-36-36-36-36-36-36-36-36-36-36-36-36-36-36-36--||
                                                    
---51----51----51----51----51----51----51----51----|
---------------------------------------------------|
*--------------------------------------------------|
*--------38----------38----------38----------38----|
---------------------------------------------------|
---36-36-36-36-36-36-36-36-36-36-36-36-36-36-36-36-|
                                                   
--51----51----51----51----51----------------------|
--------------------------------------------------|
--------------------------------------------------|
--------38----------38----------38-38-38-38-38----|
--------------------------------------------------|
--36-36-36-36-36-36-36-36-36-36-36-36-36-36-36-36-|
                                                   
--51----51----51----51----51----51----51----51----|
--------------------------------------------------|
--------------------------------------------------|
--------38----------38----------38----------38----|
--------------------------------------------------|
--36-36-36-36-36-36-36-36-36-36-36-36-36-36-36-36-|
                                                             
--51----51----51----51----51-----------------------||------||
---------------------------------------------------||------||
--------------------------------------------------*||------||
--------38----------38----------38-38-38-38-38----*||------||
---------------------------------------------------||------||
--36-36-36-36-36-36-36-36-36-36-36-36-36-36-36-36--||------||
Colaboração e revisão:
  • Taino Vieira
8.554 exibições

0 comentários

Ver todos os comentários

Conseguiu tocar?

0 Tocaram 0 Ainda não

Grave um vídeo tocando Slave to the darkness e nos envie!

00:00 / 00:00
outros vídeos desta música
repetir qualidade Automático
Outros vídeos desta música
00:00 / 00:00
Automático

Cifra Club Pro

Aproveite o Cifra Club com benefícios exclusivos e sem anúncios
Cifra Club Pro
Aproveite o Cifra Club com benefícios exclusivos e sem anúncios
OK