Cifra Club

Aprenda

The hunter

Iced Earth

Tab de baixo: Principal
Intro
G|----------|------------|------------|-------------|------------|------------|
D|----------|------------|------------|-------------|------------|------------|
A|-7---7-r--|---7---7-r--|------------|---7---7-r---|------------|------------|
E|----------|------------|-----0-r----|-------------|---3-r------|-----1-r----|
 |
G|----------|------------|------------|------------||
D|----------|------------|------------|------------||
A|-7---7-r--|---7---7-r--|------------|------------||
E|----------|------------|---3-r------|-----1-r----||

Intro b x2
G|-----------------------------|------------------------------|
D|-----------------------------|------------------------------|
A|---------7--7------5-----5---|----------7--7------3-----3---|
E|-0--0-0--------0-0---0-0-----|--0--0-0--------0-0---0-0-----|
 |
G|-----------------------------|------------------------------------||
D|-----------------------------|------------------------------------||
A|---------7--7------5-----5---|--3-------3-------3-------3-----5---||
E|-0--0-0--------0-0---0-0-----|-----0-0-----0-0----0-0-0----0------||

Riff 1 x2
G|--------------------------------|---------------------------------|
D|--------------------------------|---------------------------------|
A|---------7--7--5-5--5--5-5--5---|----------7--7--2-2--2--2-2--2---|
E|-0--0-0-------------------------|--0--0-0-------------------------|
 |
G|--------------------------------|------------------------------------||End of 
D|--------------------------------|------------------------------------||riff 1
A|---------7--7--5-5--5--5-5--5---|--3--3-3--3--3-3--3-3-3-3-3--3/-5---||
E|-0--0-0-------------------------|------------------------------------||

Verse 1 X5
G|-------------------------|--------------------------||
D|-------------------------|--------------------------||
A|-7-----7-------7-----8---|--7-----7-------7-----7---||
E|---0-0---0-0-0---0-0-----|----0-0---0-0-0---0-0-----||

Riff 1 x2
G|--------------------------------|---------------------------------|
D|--------------------------------|---------------------------------|
A|---------7--7--5-5--5--5-5--5---|----------7--7--2-2--2--2-2--2---|
E|-0--0-0-------------------------|--0--0-0-------------------------|
 |
G|--------------------------------|------------------------------------||End of 
D|--------------------------------|------------------------------------||riff 1
A|---------7--7--5-5--5--5-5--5---|--3--3-3--3--3-3--3-3-3-3-3--3/-5---||
E|-0--0-0-------------------------|------------------------------------||

Verse 2 X5
G|-------------------------|--------------------------||
D|-------------------------|--------------------------||
A|-7-----7-------7-----8---|--7-----7-------7-----7---||
E|---0-0---0-0-0---0-0-----|----0-0---0-0-0---0-0-----||


Chorus x4
G|--------------------------------|---------------------------------|
D|--------------------------------|---------------------------------|
A|---------7--7--5-5--5--5-5--5---|----------7--7--2-2--2--2-2--2---|
E|-0--0-0-------------------------|--0--0-0-------------------------|
 |
G|--------------------------------|------------------------------------||End of 
D|--------------------------------|------------------------------------||chorus
A|---------7--7--5-5--5--5-5--5---|--3--3-3--3--3-3--3-3-3-3-3--3/-5---||
E|-0--0-0-------------------------|------------------------------------||

Bridge
G|---------------------|-----------|X2
D|---------------------|-----------|
A|---------------------|-----------|
E|-0-------------------|--0-00-1-1-|
 |
G|---------------------|-----------||X2
D|---------------------|-----------||
A|---------------------|-----------||End of bridge
E|-0-00-0-00-0-00-0-00-|--0-00-1-1-||

Solo
G|----------------------|----------------------|
D|----------------------|----------------------|
A|----------------------|----------------------|
E|-3--3-3-3-3-3--3-3-3--|--1--1-1-1-1-1--1-1-1-|
 |
G|---------------------|-----------|X2
D|---------------------|-----------|
A|---------------------|-----------|
E|-0-00-0-00-0-00-0-00-|--0-00-1-1-|
 |
G|----------------------|----------------------||End of solo
D|----------------------|----------------------||
A|----------------------|----------------------||
E|-3--3-3-3-3-3--3-3-3--|--1--1-1-1-1-1--1-1-1-||

Verse 3 x5
G|-------------------------|------------------------||
D|-------------------------|------------------------||
A|-7-----7-------7-----8---|--7-----7-------7-----7-||
E|---0-0---0-0-0---0-0-----|----0-0---0-0-0---0-0---||

Chorus x4
G|--------------------------------|---------------------------------|
D|--------------------------------|---------------------------------|
A|---------7--7--5-5--5--5-5--5---|----------7--7--2-2--2--2-2--2---|
E|-0--0-0-------------------------|--0--0-0-------------------------|
 |
G|--------------------------------|------------------------------------||End of 
D|--------------------------------|------------------------------------||chorus
A|---------7--7--5-5--5--5-5--5---|--3--3-3--3--3-3--3-3-3-3-3--3/-5---||
E|-0--0-0-------------------------|------------------------------------||

Outro
G|-------------------------|--------------------------|--------------------------------||
D|-------------------------|--------------------------|--------------------------------||
A|-7-----7-------7-----8---|--7-----7-------7-----7---|--7-----7-------7-----8---------||
E|---0-0---0-0-0---0-0-----|----0-0---0-0-0---0-0-----|----0-0---0-0-0---0-0-----0--0--||

-=Versão 2=-

F#||-----------|-------------------|-------------------|-------------------|
C#||-----------|-------------------|-------------------|-------------------|
G#||--------7--|--7----------------|----------------7--|--7----------------|
D#||-----------|-------------------|-------------------|-------------------|
                                                                       
------------------|-------------------|-------------------|-------------------|
------------------|-------------------|-------------------|-------------------|
------------------|-------------------|----------------7--|--7----------------|
------------------|--0----------------|-------------------|-------------------|
                                                                 
------------------|-------------------|--------------------|-------------------|
------------------|-------------------|--------------------|-------------------|
------------------|-------------------|-----------------7--|--7----------------|
------------------|--3----------------|--1-----------------|-------------------|
                                                                  
-------------------|-------------------|------------------|-------------------|
-------------------|-------------------|------------------|-------------------|
----------------7--|--7----------------|------------------|-------------------|
-------------------|-------------------|------------------|--3----------------|
                                                                  
-------------------|-----------------------------|-----------------------------|
-------------------|-----------------------------|-----------------------------|
-------------------|---------7--7------5------5--|---------7--7------3------3--|
--1----------------|--0--0-0-------0-0----0-0----|--0--0-0-------0-0----0-0----|
                                              
-----------------------------|-----------------------------|
-----------------------------|-----------------------------|
---------7--7------5------5--|--3------3------3------3--5--|
--0--0-0-------0-0----0-0----|-----0-0----0-0----0-0-------|
                                             
-----------------------------|-----------------------------|
-----------------------------|-----------------------------|
---------7--7------5------5--|---------7--7------3------3--|
--0--0-0-------0-0----0-0----|--0--0-0-------0-0----0-0----|
                                                            
-----------------------------|-----------------------------|
-----------------------------|-----------------------------|
---------7--7------5------5--|--3------3------3------3--5--|
--0--0-0-------0-0----0-0----|-----0-0----0-0----0-0-------|
                                                     
|------------------------------|-----------------------------|
|*-----------------------------|-----------------------------|
|*---------7--7--5-5-5--5-5-5--|---------7--7--2-2-2--2-2-2--|
|---0--0-0---------------------|--0--0-0---------------------|
                                                    
-----------------------------|------------------------------||
-----------------------------|-----------------------------*||
---------7--7--5-5-5--5-5-5--|--3--3-3-3--3-3-3--3-3-3/-5--*||
--0--0-0---------------------|------------------------------||

                                                               4x
-------------------------------|-------------------------------||
*------------------------------|------------------------------*||
*--7------7----------7------8--|--7------7----------7------8--*||
------0-0----0-0-0-0----0-0----|-----0-0----0-0-0-0----0-0-----||
                                               
------------------------------|-----------------------------|
*-----------------------------|-----------------------------|
*---------7--7--5-5-5--5-5-5--|---------7--7--2-2-2--2-2-2--|
---0--0-0---------------------|--0--0-0---------------------|
                                                              
-----------------------------|------------------------------||
-----------------------------|-----------------------------*||
---------7--7--5-5-5--5-5-5--|--3--3-3-3--3-3-3--3-3-3/-5--*||
--0--0-0---------------------|------------------------------||

                                                               4x
-------------------------------|-------------------------------||
*------------------------------|------------------------------*||
*--7------7----------7------8--|--7------7----------7------8--*||
------0-0----0-0-0-0----0-0----|-----0-0----0-0-0-0----0-0-----||
                                                  
------------------------------|-----------------------------|
*-----------------------------|-----------------------------|
*---------7--7--5-5-5--5-5-5--|---------7--7--2-2-2--2-2-2--|
---0--0-0---------------------|--0--0-0---------------------|

                                                            3x
-----------------------------|------------------------------||
-----------------------------|-----------------------------*||
---------7--7--5-5-5--5-5-5--|--3--3-3-3--3-3-3--3-3-3/-5--*||
--0--0-0---------------------|------------------------------||
                                                                               
--------------------|------------------------||-------------------------------|
*-------------------|-----------------------*||*------------------------------|
*-------------------|-----------------------*||*------------------------------|
---0----------------|----------0--0-0-1--1---||---0--0-0-0--0-0-0--0-0-0--0-0-|
                                               
------------------------||------------------------------|
-----------------------*||------------------------------|
-----------------------*||------------------------------|
----------0--0-0-1--1---||--3--3-3-3--3-3-3-3-3--3-3-3--|
                                                
------------------------------||-------------------------------|
------------------------------||*------------------------------|
------------------------------||*------------------------------|
--1--1-1-1--1-1-1-1-1--1-1-1--||---0--0-0-0--0-0-0--0-0-0--0-0-|
                                                         
------------------------||------------------------------|
-----------------------*||------------------------------|
-----------------------*||------------------------------|
----------0--0-0-1--1---||--3--3-3-3--3-3-3-3-3--3-3-3--|
                                                              
------------------------------|------------------------------|
------------------------------|------------------------------|
------------------------------|--7------7----------7------8--|
--1--1-1-1--1-1-1-1-1--1-1-1--|-----0-0----0-0-0-0----0-0----|
                                                     
------------------------------||-------------------------------|
------------------------------||*------------------------------|
--7------7----------7------8--||*--7------7----------7------8--|
-----0-0----0-0-0-0----0-0----||------0-0----0-0-0-0----0-0----|

                               3x                               
-------------------------------||------------------------------|
------------------------------*||*-----------------------------|
--7------7----------7------8--*||*---------7--7--5-5-5--5-5-5--|
-----0-0----0-0-0-0----0-0-----||---0--0-0---------------------|
                                                  
-----------------------------|-----------------------------|
-----------------------------|-----------------------------|
---------7--7--2-2-2--2-2-2--|---------7--7--5-5-5--5-5-5--|
--0--0-0---------------------|--0--0-0---------------------|

                              3x                               
------------------------------||------------------------------|
-----------------------------*||------------------------------|
--3--3-3-3--3-3-3--3-3-3/-5--*||--7------7----------7------8--|
------------------------------||-----0-0----0-0-0-0----0-0----|
                                                                           
------------------------------|------------------------------|------------|
------------------------------|------------------------------|------------|
--7------7----------7------8--|--7------7----------7------8--|------------|
-----0-0----0-0-0-0----0-0----|-----0-0----0-0-0-0----0-0----|--0----0----|
Composição de Jon Schaffer
Colaboração e revisão:
  • Taino Vieira
997 exibições

0 comentários

Ver todos os comentários

Conseguiu tocar?

0 Tocaram 0 Ainda não

Grave um vídeo tocando The hunter e nos envie!

00:00 / 00:00
outros vídeos desta música
repetir qualidade Automático
Outros vídeos desta música
00:00 / 00:00
Automático

Cifra Club Pro

Aproveite o Cifra Club com benefícios exclusivos e sem anúncios
Cifra Club Pro
Aproveite o Cifra Club com benefícios exclusivos e sem anúncios
OK