Cifra Club

Aprenda

Travel In Stygian

Iced Earth

Tab de baixo: Principal
F#||--------------------------------------|
C#||--------------------------------------|
G#||-----------4--4-4-4-2--2-2-2-5--5-5-5-|
D#||--2--2-2-2----------------------------|
                                                                      
--------------------------------------|--------------------------------------|
--------------------------------------|--------------------------------------|
-----------4--4-4-4-2--2-2-2-4--3-----|-----------4--4-4-4-2--2-2-2-5--5-5-5-|
--2--2-2-2-------------------------2--|--2--2-2-2----------------------------|
                                                                       
--------------------------------------|--------------------------------------|
--------------------------------------|--------------------------------------|
-----------4--4-4-4-2--2-2-2-4--3-----|-----------4--4-4-4-2--2-2-2-5--5-5-5-|
--2--2-2-2-------------------------2--|--2--2-2-2----------------------------|
                                                                     
--------------------------------------|--------------------------------------|
--------------------------------------|--------------------------------------|
-----------4--4-4-4-2--2-2-2-4--3-----|-----------4--4-4-4-2--2-2-2-5--5-5-5-|
--2--2-2-2-------------------------2--|--2--2-2-2----------------------------|
                                                                      
--------------------------------------|--------------------------------------|
--------------------------------------|--------------------------------------|
-----------4--4-4-4-2--2-2-2-4--3-----|-----------4--4-4-4-2--2-2-2-5--5-5-5-|
--2--2-2-2-------------------------2--|--2--2-2-2----------------------------|
                                                                       
--------------------------------------|--------------------------------------|
--------------------------------------|--------------------------------------|
-----------4--4-4-4-2--2-2-2-4--3-----|-----------4--4-4-4-2--2-2-2-5--5-5-5-|
--2--2-2-2-------------------------2--|--2--2-2-2----------------------------|
                                                      
--------------------------------------|---------------------|
--------------------------------------|---------------------|
-----------4--4-4-4-2--2-2-2-4--3-----|---------------------|
--2--2-2-2-------------------------2--|--2------------2--0--|
                                                                         
---------------------|---------------------|----------------------------|
---------------------|---------------------|----------------------------|
---------------------|---------------------|----------------------------|
--3------------3--0--|--2------------2--0--|--5-5-5-5-5----3-3-3-3-3----|
                                                           
---------------------|---------------------|---------------------|
---------------------|---------------------|---------------------|
---------------------|---------------------|---------------------|
--2------------2--0--|--3------------3--0--|--2------------2--0--|
                                                                        
----------------------------|-------------------|----------------------|
----------------------------|-------------------|----------------------|
----------------------------|-------------------|----------4--5--4-----|
--5-5-5-5-5----3-3-3-3-3----|--2----------------|-------------------5--|
                                                            
-------------------|----------------------|----------------------|
-------------------|----------------------|----------------------|
-------------------|----------4--5--4-----|----------------------|
--2----------------|-------------------5--|--3--3----------3--3--|
                                                                 
----------------------|----------------------|----------------------|
----------------------|----------------------|----------------------|
----------5--6--5-----|----------------------|----------5--6--5-----|
-------------------6--|--3--3----------3--3--|-------------------6--|
                                                        
---------------------------|---------------------------|
---------------------------|---------------------------|
--------4---------2-----5--|-----4---------4--5--4-----|
--2--2-----2-2-2-----2-----|--2-----2-2-2-----------5--|
                                                  
---------------------------|---------------------------|
---------------------------|---------------------------|
--------4---------2-----5--|-----4---------4--5--4-----|
--2--2-----2-2-2-----2-----|--2-----2-2-2-----------5--|
                                                     
---------------------------|---------------------------|
---------------------------|---------------------------|
--------5---------3-----6--|-----5---------5--6--5-----|
--3--3-----3-3-3-----3-----|--3-----3-3-3-----------6--|
                                                        
---------------------------|---------------------------|
---------------------------|---------------------------|
--------5---------3-----6--|-----5---------5--6--5-----|
--3--3-----3-3-3-----3-----|--3-----3-3-3-----------6--|
                                                        
---------------------------|---------------------------|
---------------------------|---------------------------|
--------4---------2-----5--|-----4---------4--5--4-----|
--2--2-----2-2-2-----2-----|--2-----2-2-2-----------5--|
                                                        
---------------------------|---------------------------|
---------------------------|---------------------------|
--------4---------2-----5--|-----4---------4--5--4-----|
--2--2-----2-2-2-----2-----|--2-----2-2-2-----------5--|
                                              
---------------------------|---------------------------|
---------------------------|---------------------------|
--------5---------3-----6--|-----5---------5--6--5-----|
--3--3-----3-3-3-----3-----|--3-----3-3-3-----------6--|
                                                        
---------------------------|---------------------------|
---------------------------|---------------------------|
--------5---------3-----6--|-----5---------5--6--5-----|
--3--3-----3-3-3-----3-----|--3-----3-3-3-----------6--|
                                               
---------------------------|---------------------------|
---------------------------|---------------------------|
---------------------------|------------------------5--|
--2--2--2--2-2-2--2--2--2--|--2--2--2-2-2--2--3--2-----|
                                                        
---------------------------|---------------------------|
---------------------------|---------------------------|
---------------------------|------------------------5--|
--2--2--2--2-2-2--2--2--2--|--2--2--2-2-2--2--3--2-----|

---------------------------|---------------------------|
---------------------------|---------------------------|
---------------------------|------------------------6--|
--3--3--3--3-3-3--3--3--3--|--3--3--3-3-3--3--4--3-----|
                                               
---------------------------|---------------------------|
---------------------------|---------------------------|
---------------------------|------------------------6--|
--3--3--3--3-3-3--3--3--3--|--3--3--3-3-3--3--4--3-----|
                                                                               
|------------------------|----------------------------|-----------------------|
|*-----------------------|----------------------------|-----------------------|
|*-----------------------|----------------------------|-----------------------|
|---2--2--2--2--2--------|--5-5-5-5-5----3-3-3-3-3----|--2--2--2--2--2--------|
                                                            
-----------------------------||----------------------------|
----------------------------*||*---------------------------|
----------------------------*||*--------4---------2-----5--|
--5-5-5-5-5----3-3-3-3-3-----||---2--2-----2-2-2-----2-----|
                                                        
---------------------------|---------------------------|
---------------------------|---------------------------|
-----4---------4--5--4-----|--------4---------2-----5--|
--2-----2-2-2-----------5--|--2--2-----2-2-2-----2-----|
                                                        
---------------------------|---------------------------|
---------------------------|---------------------------|
-----4---------4--5--4-----|--------5---------3-----6--|
--2-----2-2-2-----------5--|--3--3-----3-3-3-----3-----|
                                                  
---------------------------|---------------------------|
---------------------------|---------------------------|
-----5---------5--6--5-----|--------5---------3-----6--|
--3-----3-3-3-----------6--|--3--3-----3-3-3-----3-----|
                                                       
----------------------------||------------------------|
---------------------------*||*-----------------------|
-----5---------5--6--5-----*||*-----------------------|
--3-----3-3-3-----------6---||---2--2--2--2--2--------|
                                                     
----------------------------|-----------------------|
----------------------------|-----------------------|
----------------------------|-----------------------|
--5-5-5-5-5----3-3-3-3-3----|--2--2--2--2--2--------|
                                                        
-----------------------------||------------------------------|
----------------------------*||*-----------------------------|
----------------------------*||*-----------------------------|
--5-5-5-5-5----3-3-3-3-3-----||---0h-2--2--2-2-2--2-2-2--2-2-|
                                                            
-----------------------------|-----------------------------|
-----------------------------|-----------------------------|
-----------------------------|-----------------------------|
--2--2-2-2--2-2-2--2-2-2--2--|--0h-2--2--2-2-2--2-2-2--2-2-|

                         4x                              
-------------------------||-----------------------------|
------------------------*||-----------------------------|
------------------------*||-----------------------------|
--0--2--3--5----3----2---||--0h-2--2--2-2-2--2-2-2--2-2-|
                                                        
-----------------------------|-----------------------------|
-----------------------------|-----------------------------|
-----------------------------|-----------------------------|
--2--2-2-2--2-2-2--2-2-2--2--|--0h-2--2--2-2-2--2-2-2--2-2-|
                                                                
------------------------|--------------------------|--------------------------|
------------------------|--------------------------|--------------------------|
------------------------|--------------------------|--------------------------|
--0--2--3--5----3----2--|--2-2-2-2-2----2--2----2--|--0-0-0-0-0----0--0----0--|
                                                      
--------------------------|--------------------------|
--------------------------|--------------------------|
--------------------------|--------------------------|
--3-3-3-3-3----3--3----3--|--2-2-2-2-2----2--2----2--|
                                                  
-----------------------------|-----------------------------|
-----------------------------|-----------------------------|
-----------------------------|-----------------------------|
--0h-2--2--2-2-2--2-2-2--2-2-|--2--2-2-2--2-2-2--2-2-2--2--|
                                                   
-----------------------------|-----------------------------|
-----------------------------|-----------------------------|
-----------------------------|-----------------------------|
--0h-2--2--2-2-2--2-2-2--2-2-|--2--2-2-2--2-2-2--2-2-2--2--|
                                               
--------------------------|--------------------------|
--------------------------|--------------------------|
--------------------------|--------------------------|
--2-2-2-2-2----2--2----2--|--0-0-0-0-0----0--0----0--|
                                                      
--------------------------|--------------------------|
--------------------------|--------------------------|
--------------------------|--------------------------|
--3-3-3-3-3----3--3----3--|--2-2-2-2-2----2--2----2--|
                                                       
|------------------------------|--4-------------------|
|*--5h-4--4--4-4-4--4-4-4--4-4-|-------7----5----4----|
|*-----------------------------|----------------------|
|------------------------------|----------------------|
                                              
-----------------------------|--4-------------------|
--5h-4--4--4-4-4--4-4-4--4-4-|-------7----5----4----|
-----------------------------|----------------------|
-----------------------------|----------------------|
                                                                      
---------------------------------|----------------------------------||
---------------------------------|---------------------------------*||
--7-7-7-7-7----10-10-10-10-10----|--5-5-5-5-5----10-10-10-10-10----*||
---------------------------------|----------------------------------||
                                                       
--------------------|--7----------------|--------------------|
---------------7----|-------------------|---------------7----|
--------------------|-------------------|--3-----------------|
--0-----------------|-------------------|--------------------|
                                                        
--7----------------|--------------------|--7----------------|
-------------------|---------------7----|-------------------|
-------------------|--------------------|-------------------|
-------------------|--0-----------------|-------------------|
                                                    
--------------------|--7----------------|-------------------|
---------------7----|-------------------|-------------------|
--3-----------------|-------------------|--2----------------|
--------------------|-------------------|-------------------|
                                                               
---------------------||--------------------|------------------|
---------------------||*-------------------|------------------|
--0--------3---------||*-------------------|------------------|
----------------3----||---0----------------|------------------|
                                                                              
-------------------|------------------|-------------------|------------------|
-------------------|------------------|-------------------|------------------|
--3----------------|------------------|-------------------|------------------|
-------------------|------------------|--0----------------|------------------|
                                                    
-------------------|------------------|-------------------|
-------------------|------------------|-------------------|
--3----------------|------------------|--2----------------|
-------------------|------------------|-------------------|
                                                                       
----------------------||--------------------------|--------------------------|
---------------------*||--------------------------|--------------------------|
--0--------3---------*||--2--2--2--2--2--2--2--2--|--0--0--0--0--3--3--------|
----------------3-----||--------------------------|--------------------3--3--|
                                                        
|-----------------------------|------------------------|
|*----------------------------|------------------------|
|*---------------7------------|-----------7----7----7--|
|---0-0-0--0--0-------0-0-0-0-|--7/-8--7---------------|
                                                      
----------------------------|------------------------|
----------------------------|------------------------|
---------------7------------|-----------7----5----5--|
--0-0-0--0--0-------0-0-0-0-|--7/-8--7---------------|
                                                  
----------------------------|------------------------|
----------------------------|------------------------|
---------------7------------|-----------7----7----7--|
--0-0-0--0--0-------0-0-0-0-|--7/-8--7---------------|

                                                                2x
-------------------------------|--------------------------------||
-------------------------------|-------------------------------*||
--5-5-5-5-5--5-5-5-5-5--5-5-5--|--3-3-3-3-3--3-3-3-3-3--3-3-3--*||
-------------------------------|--------------------------------||
                                                                               
---------------------------|------------------------|-------------------------|
*----------------------10--|--9--7--9--7------------|----------------------7--|
*--7-7-7--7--7--7----------|----------------10------|--5-5-5--5--5--5---------|
---------------------------|------------------------|-------------------------|
                                                        
--------------------------||---------------------------|
--5--4--5--7--5--4--5----*||*----------------------10--|
-------------------------*||*--7-7-7--7--7--7----------|
--------------------------||---------------------------|
                                                                               
------------------------|-------------------------|--------------------------||
--9--7--9--7------------|----------------------7--|--5--4--5--7--5--4--5----*||
----------------10------|--5-5-5--5--5--5---------|-------------------------*||
------------------------|-------------------------|--------------------------||
                                                                             
-------------------|------------------|------------------|------------------|
-------------------|------------------|------------------|------------------|
-------------------|------------------|------------------|------------------|
--0----------------|------------------|------------------|------------------|
                                                                                
-------------------|-------------------|-------------------|-------------------|
-------------------|-------------------|-------------------|-------------------|
-------------------|-------------------|--3----------------|--5----------------|
--0----------------|--0----------------|-------------------|-------------------|
                                                         
-------------------------------|-------------------------------|
-------------------------------|-------------------------------|
--7-7-7-7-7--7-7-7-7-7--7-7-7--|--7-7-7-7-7--7-7-7-7-7--7-7-7--|
-------------------------------|-------------------------------|
                                                                
-------------------------------|-------------------------------|
-------------------------------|-------------------------------|
-------------------------------|-------------------------------|
--3-3-3-3-3--3-3-3-3-3--3-3-3--|--5-5-5-5-5--5-5-5-5-5--5-5-5--|
                                                               
-------------------------------|-------------------------------|
-------------------------------|-------------------------------|
--7-7-7-7-7--7-7-7-7-7--7-7-7--|--7-7-7-7-7--7-7-7-7-7--7-7-7--|
-------------------------------|-------------------------------|
                                                         
-------------------------------|------------------------|
-------------------------------|------------------------|
-------------------------------|------------------------|
--3-3-3-3-3--3-3-3-3-3--3-3-3--|--5-5-5-5-5--5/---------|
                                                         
-------------------------------|-------------------------------|
-------------------------------|-------------------------------|
-------------------------------|-------------------------------|
--0-0-0-0-0--0-0-0-0-0--0-0-0--|--0-0-0-0-0--0-0-0-0-0--0-0-0--|
                                                         
-------------------------------|-------------------------------|
-------------------------------|-------------------------------|
-------------------------------|-------------------------------|
--3-3-3-3-3--3-3-3-3-3--3-3-3--|--2-2-2-2-2--2-2-2-2-2--2-2-2--|
                                                                
-------------------------------|-------------------------------|
-------------------------------|-------------------------------|
-------------------------------|-------------------------------|
--0-0-0-0-0--0-0-0-0-0--0-0-0--|--0-0-0-0-0--0-0-0-0-0--0-0-0--|
                                                          
-------------------------------|-------------------------------|
-------------------------------|-------------------------------|
-------------------------------|-------------------------------|
--3-3-3-3-3--3-3-3-3-3--3-3-3--|--2-2-2-2-2--2-2-2-2-2--2-2-2--|
                                                           
-------------------------------|-------------------------------|
-------------------------------|-------------------------------|
-------------------------------|-------------------------------|
--0-0-0-0-0--0-0-0-0-0--0-0-0--|--0-0-0-0-0--0-0-0-0-0--0-0-0--|
                                                          
-------------------------------|-------------------------------|
-------------------------------|-------------------------------|
-------------------------------|-------------------------------|
--3-3-3-3-3--3-3-3-3-3--3-3-3--|--2-2-2-2-2--2-2-2-2-2--2-2-2--|
                                                                
-------------------------------|-------------------------------|
-------------------------------|-------------------------------|
-------------------------------|-------------------------------|
--0-0-0-0-0--0-0-0-0-0--0-0-0--|--0-0-0-0-0--0-0-0-0-0--0-0-0--|
                                                               
-------------------------------|-------------------------------|
-------------------------------|-------------------------------|
-------------------------------|-------------------------------|
--3-3-3-3-3--3-3-3-3-3--3-3-3--|--2-2-2-2-2--2-2-2-2-2--2-2-2--|
                                                             
|-----------------------------------|----------------------------||
|*----------------------------------|---------------------------*||
|*--2-2-2-2-3-3-3-3-2-2-2-2-0-0-0-0-|--2-2-2-2-3-3-3--2----2----*||
|-----------------------------------|----------------------------||
                                                              
-----------------------------------|----------------------------||
*----------------------------------|---------------------------*||
*----------------------------------|---------------------------*||
---2-2-2-2-3-3-3-3-2-2-2-2-0-0-0-0-|--2-2-2-2-3-3-3--2----2-----||

                                                                         8x
------------------------------------|------------------------------------||
*-----------------------------------|-----------------------------------*||
*-----------------------------------|-----------------------------------*||
---2----2--2----2--2----2--3--2--0--|--2----2--2----2--2----2--3--2--0---||
                                                                     
-----------------------------------|-----------------------------------|
-----------------------------------|-----------------------------------|
-----------------------------------|-----------------------------------|
--2----2--2----2--2----2--3--2--0--|--2----2--2----2--2----2--3--2--0--|
                                                                   
-----------------------------------|-----------------------------------|
-----------------------------------|-----------------------------------|
-----------------------------------|-----------------------------------|
--2----2--2----2--2----2--3--2--0--|--2----2--2----2--2----2--3--2--0--|
                                                                        
-----------------------------------|-----------------------------------|
-----------------------------------|-----------------------------------|
-----------------------------------|-----------------------------------|
--2----2--2----2--2----2--3--2--0--|--2----2--2----2--2----2--3--2--0--|
                                                                     
-----------------------------------|-----------------------------------|
-----------------------------------|-----------------------------------|
-----------------------------------|-----------------------------------|
--2----2--2----2--2----2--3--2--0--|--2----2--2----2--2----2--3--2--0--|
                                                                     
-----------------------------------|-----------------------------------|
-----------------------------------|-----------------------------------|
-----------------------------------|-----------------------------------|
--2----2--2----2--2----2--3--2--0--|--2----2--2----2--2----2--3--2--0--|
                                                            
-----------------------------|-----------------------------|
-----------------------------|-----------------------------|
--------------------0--2--3--|-----------------------------|
-----------------------------|--------------------3--5--7--|
                                                            
-----------------------------|---------------------------------|
-----------------------------|---------------------------------|
-----------------------------|------------------------5--3--2--|
--------------------3--2--0--|--3--2--0--2---------------------|
                                                            
-----------------------------|-----------------------------|
-----------------------------|-----------------------------|
--------------------0--2--3--|-----------------------------|
-----------------------------|--------------------3--5--7--|
                                                             
-----------------------------|------------------------------|
-----------------------------|------------------------------|
-----------------------------|------------------------------|
--------------------3--2--0--|--3--2--0--2------------------|
                                                              
|------------------------------|-----------------------------|
|*-----------------------------|-----------------------------|
|*-----------------------------|-----------------------------|
|---0h-2--2--2-2-2--2-2-2--2-2-|--2--2-2-2--2-2-2--2-2-2--2--|

                                                       4x
-----------------------------|-------------------------||
-----------------------------|------------------------*||
-----------------------------|------------------------*||
--0h-2--2--2-2-2--2-2-2--2-2-|--0--2--3--5----3----2---||
                                                     
-----------------------------|-----------------------------|
-----------------------------|-----------------------------|
-----------------------------|-----------------------------|
--0h-2--2--2-2-2--2-2-2--2-2-|--2--2-2-2--2-2-2--2-2-2--2--|
                                                
-----------------------------|------------------------|
-----------------------------|------------------------|
-----------------------------|------------------------|
--0h-2--2--2-2-2--2-2-2--2-2-|--0--2--3--5----3----2--|
                                                   
--------------------------|--------------------------|
--------------------------|--------------------------|
--------------------------|--------------------------|
--2-2-2-2-2----2--2----2--|--0-0-0-0-0----0--0----0--|
                                              
--------------------------|--------------------------|
--------------------------|--------------------------|
--------------------------|--------------------------|
--3-3-3-3-3----3--3----3--|--2-2-2-2-2----2--2----2--|
                                                            
-----------------------------|-----------------------------|
-----------------------------|-----------------------------|
-----------------------------|-----------------------------|
--0h-2--2--2-2-2--2-2-2--2-2-|--2--2-2-2--2-2-2--2-2-2--2--|
                                                       
-----------------------------|-----------------------------|
-----------------------------|-----------------------------|
-----------------------------|-----------------------------|
--0h-2--2--2-2-2--2-2-2--2-2-|--2--2-2-2--2-2-2--2-2-2--2--|
                                                
--------------------------|--------------------------|
--------------------------|--------------------------|
--------------------------|--------------------------|
--2-2-2-2-2----2--2----2--|--0-0-0-0-0----0--0----0--|
                                                      
--------------------------|--------------------------|
--------------------------|--------------------------|
--------------------------|--------------------------|
--3-3-3-3-3----3--3----3--|--2-2-2-2-2----2--2----2--|
                                                       
|------------------------------|--4-------------------|
|*--5h-4--4--4-4-4--4-4-4--4-4-|-------7----5----4----|
|*-----------------------------|----------------------|
|------------------------------|----------------------|
                                                     
-----------------------------|--4-------------------|
--5h-4--4--4-4-4--4-4-4--4-4-|-------7----5----4----|
-----------------------------|----------------------|
-----------------------------|----------------------|
                                                                      
---------------------------------|----------------------------------||
---------------------------------|---------------------------------*||
--7-7-7-7-7----10-10-10-10-10----|--5-5-5-5-5----10-10-10-10-10----*||
---------------------------------|----------------------------------||
                                            
-----------------------------|------------------------|
*----------------------------|------------------------|
*---------------7------------|-----------7----7----7--|
---0-0-0--0--0-------0-0-0-0-|--7/-8--7---------------|
                                                
----------------------------|------------------------|
----------------------------|------------------------|
---------------7------------|-----------7----5----5--|
--0-0-0--0--0-------0-0-0-0-|--7/-8--7---------------|
                                                      
----------------------------|------------------------|
----------------------------|------------------------|
---------------7------------|-----------7----7----7--|
--0-0-0--0--0-------0-0-0-0-|--7/-8--7---------------|

                                                           2x
-------------------------------|--------------------------------||
-------------------------------|-------------------------------*||
--5-5-5-5-5--5-5-5-5-5--5-5-5--|--3-3-3-3-3--3-3-3-3-3--3-3-3--*||
-------------------------------|--------------------------------||
                                         
------------------------|------------------|--------------------------|
------------------------|------------------|--------------------------|
------------------------|------------------|--------------------------|
--0-0-0--0--0--0--------|------------------|--------------------------|
                                                         
------------------|------------------|------------------|------------------|
------------------|------------------|------------------|------------------|
------------------|------------------|------------------|------------------|
------------------|------------------|------------------|------------------|
                                                                            
------------------|------------------|------------------|------------------|
------------------|------------------|------------------|------------------|
------------------|------------------|------------------|------------------|
------------------|------------------|------------------|------------------|
                                                                   
------------------|------------------|------------------|------------------|
------------------|------------------|------------------|------------------|
------------------|------------------|------------------|------------------|
------------------|------------------|------------------|------------------|
            
------------------||
------------------||
------------------||
------------------||
Composição de Jon Schaffer
Colaboração e revisão:
  • Taino Vieira
33 exibições

0 comentários

Ver todos os comentários

Conseguiu tocar?

0 Tocaram 0 Ainda não

Grave um vídeo tocando Travel In Stygian e nos envie!

00:00 / 00:00
outros vídeos desta música
repetir qualidade Automático
Outros vídeos desta música
00:00 / 00:00
Automático

Cifra Club Pro

Aproveite o Cifra Club com benefícios exclusivos e sem anúncios
Cifra Club Pro
Aproveite o Cifra Club com benefícios exclusivos e sem anúncios
OK