Cifra Club

Watching Over Me

Iced Earth

Tab de baixo: Principal
Eb Tuning



                                                                          
F#||------|------|------|------|------|------|------|------|------|------|
C#||------|------|------|------|------|------|------|------|------|------|
G#||------|------|------|------|------|------|------|------|------|------|
D#||------|------|------|------|------|------|------|------|------|------|


                                                                             
------|------|------|------|------|------|------|------|------|------|------|
------|------|------|------|------|------|------|------|------|------|------|
------|------|------|------|------|------|------|------|------|------|------|
------|------|------|------|------|------|------|------|------|------|------|


                                                                           
------|------|------|------|----------------------|-----------------------|
------|------|------|------|----------------------|-----------------------|
------|------|------|------|----------------------|--3--3-3-3--3----------|
------|------|------|------|--0--0--0--0----------|-----------------------|


                                                                     
----------------------|----------------------|----------------------|
----------------------|----------------------|----------------------|
----------------------|----------------------|----------------------|
--3--3--3--3----------|--2----2--3------2----|--0--0--0--0----------|


                                                                      
-----------------------|----------------------|----------------------|
-----------------------|----------------------|----------------------|
--3--3-3-3--3----------|----------------------|----------------------|
-----------------------|--3--3--3--3----------|--2----2--3------2----|


                                                                      
----------------------|-----------------------|----------------------|
----------------------|-----------------------|----------------------|
----------------------|--3--3-3-3--3----------|----------------------|
--0--0--0--0----------|-----------------------|--3--3--3--3----------|


                                                                      
----------------------|----------------------|-----------------------|
----------------------|----------------------|-----------------------|
----------------------|----------------------|--3--3-3-3--3----------|
--2----2--3------2----|--0--0--0--0----------|-----------------------|


                                                                  
----------------------|----------------------|-------------------|
----------------------|----------------------|-------------------|
----------------------|----------------------|-------------------|
--3--3--3--3----------|--2----2--3------2----|--0----------------|


                                                                
-------------------|-------------------|-----------------------|
-------------------|-------------------|-----------------------|
--3----------------|-------------------|-----------------------|
-------------------|--3----------------|--2--------3--0--2--0--|


                                                            
-------------------|-------------------|-------------------|
-------------------|-------------------|-------------------|
-------------------|--3----------------|-------------------|
--0----------------|-------------------|--3----------------|


                                                                
-----------------------|-------------------|-------------------|
-----------------------|-------------------|-------------------|
-----------------------|-------------------|--3----------------|
--2--------3--0--2--0--|--0----------------|-------------------|


                                                                
-------------------|-----------------------|-------------------|
-------------------|-----------------------|-------------------|
-------------------|-----------------------|-------------------|
--3----------------|--2--------3--0--2--0--|--0----------------|


                                                                
-------------------|-------------------|-----------------------|
-------------------|-------------------|-----------------------|
--3----------------|-------------------|-----------------------|
-------------------|--3----------------|--2--------3--0--2--0--|


                                                            
-------------------|-------------------|-------------------|
-------------------|-------------------|-------------------|
-------------------|--3----------------|-------------------|
--0----------------|-------------------|--3----------------|


                                                                
-----------------------|-------------------|-------------------|
-----------------------|-------------------|-------------------|
-----------------------|-------------------|--3----------------|
--2--------3--0--2--0--|--0----------------|-------------------|


                                                                   
-------------------|-----------------------|----------------------|
-------------------|-----------------------|----------------------|
-------------------|-----------------------|----------------------|
--3----------------|--2--------3--0--2--0--|--0--0--0--0----------|


                                                                      
-----------------------|----------------------|----------------------|
-----------------------|----------------------|----------------------|
--3--3-3-3--3----------|----------------------|----------------------|
-----------------------|--3--3--3--3----------|--2----2--3------2----|


                                                                      
----------------------|-----------------------|----------------------|
----------------------|-----------------------|----------------------|
----------------------|--3--3-3-3--3----------|----------------------|
--0--0--0--0----------|-----------------------|--3--3--3--3----------|


                                                                      
----------------------|----------------------|-----------------------|
----------------------|----------------------|-----------------------|
----------------------|----------------------|--3--3-3-3--3----------|
--2----2--3------2----|--0--0--0--0----------|-----------------------|


                                                                     
----------------------|----------------------|----------------------|
----------------------|----------------------|----------------------|
----------------------|----------------------|----------------------|
--3--3--3--3----------|--2----2--3------2----|--0--0--0--0----------|


                                                                      
-----------------------|----------------------|----------------------|
-----------------------|----------------------|----------------------|
--3--3-3-3--3----------|----------------------|----------------------|
-----------------------|--3--3--3--3----------|--2----2--3------2----|


                                                                              
-------------------------|-------------------------|-------------------------|
-------------------------|-------------------------|-------------------------|
-------------------------|--3--3--3--3--3--3--3----|-------------------------|
--0--0--0--0--0--0--0----|-------------------------|--3--3--3--3--3--3--3----|


                                                                              
-------------------------|-------------------------|-------------------------|
-------------------------|-------------------------|-------------------------|
-------------------------|-------------------------|--3--3--3--3--3--3--3----|
--2--2--2--2--3--0--2----|--0--0--0--0--0--0--0----|-------------------------|


                                                                           
-------------------------|-------------------------|----------------------|
-------------------------|-------------------------|----------------------|
-------------------------|-------------------------|--3--3--3--3----------|
--3--3--3--3--3--3--3----|--2--2--2--2--3--0--2----|----------------------|


                                                                            
----------------------|----------------------|-----------------------------|
----------------------|----------------------|-----------------------------|
--5--5--5--5----------|--3--3--3--3----------|--5--5--5--5--5----5----5----|
----------------------|----------------------|-----------------------------|


                                                                         
----------------------|----------------------|--------------------------|
----------------------|----------------------|--------------------------|
--3--3--3--3----------|--5--5--5--5----------|--2--2--2--2--2--2--2--2--|
----------------------|----------------------|--------------------------|


                                                                          
--------------------------|----------------------|-----------------------|
--------4--5--------------|----------------------|-----------------------|
--2--2--------------------|----------------------|--3--3-3-3--3----------|
--------------3--5--2--3--|--0--0--0--0----------|-----------------------|


                                                                      
----------------------|-----------------------|----------------------|
----------------------|-----------------------|----------------------|
----------------------|-----------------------|----------------------|
--3--3--3--3----------|--2--0--2--3------2----|--0--0--0--0----------|


                                                                      
-----------------------|----------------------|----------------------|
-----------------------|----------------------|----------------------|
--3--3-3-3--3----------|----------------------|----------------------|
-----------------------|--3--3--3--3----------|--2----2--3------2----|


                                                                      
----------------------|-----------------------|----------------------|
----------------------|-----------------------|----------------------|
----------------------|--3--3-3-3--3----------|----------------------|
--0--0--0--0----------|-----------------------|--3--3--3--3----------|


                                                                      
----------------------|----------------------|-----------------------|
----------------------|----------------------|-----------------------|
----------------------|----------------------|--3--3-3-3--3----------|
--2----2--3------2----|--0--0--0--0----------|-----------------------|


                                                                     
----------------------|----------------------|----------------------|
----------------------|----------------------|----------------------|
----------------------|----------------------|----------------------|
--3--3--3--3----------|--2----2--3------2----|--0--0--0--0----------|


                                                                      
-----------------------|----------------------|----------------------|
-----------------------|----------------------|----------------------|
--3--3-3-3--3----------|----------------------|----------------------|
-----------------------|--3--3--3--3----------|--2----2--3------2----|


                                                                      
----------------------|-----------------------|----------------------|
----------------------|-----------------------|----------------------|
----------------------|--3--3-3-3--3----------|----------------------|
--0--0--0--0----------|-----------------------|--3--3--3--3----------|


                                                                      
----------------------|----------------------|-----------------------|
----------------------|----------------------|-----------------------|
----------------------|----------------------|--3--3-3-3--3----------|
--2----2--3------2----|--0--0--0--0----------|-----------------------|


                                                                     
----------------------|----------------------|----------------------|
----------------------|----------------------|----------------------|
----------------------|----------------------|----------------------|
--3--3--3--3----------|--2----2--3------2----|--0--0--0--0----------|


                                                                      
-----------------------|----------------------|----------------------|
-----------------------|----------------------|----------------------|
--3--3-3-3--3----------|----------------------|----------------------|
-----------------------|--3--3--3--3----------|--2----2--3------2----|


                                                                      
----------------------|-----------------------|----------------------|
----------------------|-----------------------|----------------------|
----------------------|--3--3-3-3--3----------|----------------------|
--0--0--0--0----------|-----------------------|--3--3--3--3----------|


                                                                      
----------------------|----------------------|-----------------------|
----------------------|----------------------|-----------------------|
----------------------|----------------------|--3--3-3-3--3----------|
--2----2--3------2----|--0--0--0--0----------|-----------------------|


                                                                     
----------------------|----------------------|----------------------|
----------------------|----------------------|----------------------|
----------------------|----------------------|----------------------|
--3--3--3--3----------|--2----2--3------2----|--0--0--0--0----------|


                                                                      
-----------------------|----------------------|----------------------|
-----------------------|----------------------|----------------------|
--3--3-3-3--3----------|----------------------|----------------------|
-----------------------|--3--3--3--3----------|--2----2--3------2----|


                                                                      
----------------------|-----------------------|----------------------|
----------------------|-----------------------|----------------------|
----------------------|--3--3-3-3--3----------|----------------------|
--0--0--0--0----------|-----------------------|--3--3--3--3----------|


                        
----------------------||
----------------------||
----------------------||
--2----2--3------2----||




_______________________________________________________
Contribuição: Rodrigo Murai(rdmurai@terra.com.br)
00:00 / 00:00
Outros vídeos desta música
Repetir
Outros vídeos desta música
Composição de Jon Schaffer
4.494 exibições

0 comentários

Ver todos os comentários

Entre para oCifra Club PRO

Tenha acesso a benefícios exclusivos no App e no Site

  • Chega de anúncios

  • Prioridade de compra em lançamentos

  • Mais recursos no app do Afinador

  • Atendimento Prioritário

  • Descontos nos produtos Cifra Club

  • Ajude a produzir mais conteúdo

00:00 / 00:00

Cifra Club Pro

Aproveite o Cifra Club com benefícios exclusivos e sem anúncios
Cifra Club Pro
Aproveite o Cifra Club com benefícios exclusivos e sem anúncios
OK