When The Eagle Cries

Iced Earth

Composição de: Jon Schaffer
When The Eagle Cries (Unplugged)

I have noticed that this song hasn’t been tabbed before, this sounds right, please correct if not.
Enjoy. . .

Intro:
F#|-------------------|
C#|-------------------|
G#|-------------3--5--|
D#|0--0--0--0---------|

Main Riff:
F#|------------------------------------------------|
C#|---------------------------------5---5-5-5-5-5--|
G#|-----------3--3--3----5-5--5-5------------------|
D#|0---0-0--0--------------------------------------|

About 2:42mins into song play this:
F#|--------------------|
C#|--------------------|
G#|--5--5--5--5--7--7--|
D#|--------------------|
Then Play Main Riff Til End
Página 1 / 1

Letras e título
Acordes e artista

resetar configurações
OK