Cifra Club

Aprenda

When The Night Falls

Iced Earth

Tab de baixo: Principal
listen for timing

F#||------|------|------|------|----------------------|-------------------|
C#||------|------|------|------|---------------10-8-7-|-------------------|
G#||------|------|------|------|----------------------|--8----------------|
D#||------|------|------|------|----------------------|-------------------|
                                                         
--------------------|--------------------|------------------------|
--------------------|--------------------|-----------------10-8-7-|
--7--------5--------|--7--------5--------|--8------8--------------|
--------------------|--------------------|------------------------|
                                                                   
--------------------|----------------------|----------------------|
--------------------|----------------------|----------------------|
--8------8----------|--2------2--3------3--|--2------2--1------1--|
--------------------|----------------------|----------------------|
                                                                  
----------------------|----------------------|-------------------|
----------------------|----------------------|-------------------|
--2------2--3------3--|--2------2------------|--0----------------|
----------------------|------------1----3----|-------------------|
                                                            
-------------------|-------------------|-------------------|
-------------------|-------------------|--------7----------|
--0----------------|--0----------------|-------------------|
-------------------|-------------------|-------------------|
                                                          
--------------------|-------------------|----------------------|
--------------------|-------------------|----------------------|
--8--------------2/-|--8----------------|--2------2--3------3--|
--------------------|-------------------|----------------------|
                                                                           
----------------------|----------------------|----------------------------|
----------------------|----------------------|----------------------------|
--2------2--1------1--|--2------2--3------3--|--2------2------------------|
----------------------|----------------------|------------1-1-1-1-3-3-3-3-|
                                                             
------------------------------|----------------------------------|
------------------------------|----------------------------------|
--------------7-7-7-5-0-5-0-5-|--3----3--3h0---------------------|
--0----0--0-0-----------------|--------------3-3-3-3-2-2-2-2-1-0-|
                                                            
------------------------------|----------------------------------|
------------------------------|----------------------------------|
--------------7-7-7-5-0-5-0-5-|--3----3--3h0---------------------|
--0----0--0-0-----------------|--------------3-3-3-3-2-2-2-2-1-0-|
                                                                  
------------------------------|----------------------------------|
------------------------------|----------------------------------|
--------------7-7-7-5-0-5-0-5-|--3----3--3h0---------------------|
--0----0--0-0-----------------|--------------3-3-3-3-2-2-2-2-1-0-|
                                                              
------------------------------|----------------------------------|
------------------------------|----------------------------------|
--------------7-7-7-5-0-5-0-5-|--3----3--3h0---------------------|
--0----0--0-0-----------------|--------------3-3-3-3-2-2-2-2-1-0-|
                                             
--------------------------------------------|
--------------------------------------------|
--------------------------------------------|
--0---0-0-0-0-0-0-0-0-0-0-0-0-0-0-0-0-0-0-0-|
                                         
----------------------------------------|
----------------------------------------|
----------------------------------------|
--5--0-0-0-0-0-0-0-0-3--0-0-0-0-0-0-0-0-|

--------------------------------------------|
--------------------------------------------|
--------------------------------------------|
--0---0-0-0-0-0-0-0-0-0-0-0-0-0-0-0-0-0-0-0-|

----------------------------------------|
----------------------------------------|
----------------------------------------|
--5--0-0-0-0-0-0-0-0-3--0-0-0-0-0-0-0-0-|
                                                                      
--------------------------------------------|------------------------------|
--------------------------------------------|------------------------------|
--------------------------------------------|------------------------------|
--0---0-0-0-0-0-0-0-0-0-0-0-0-0-0-0-0-0-0-0-|--5---5-5-5-5-5-3---3-3-3-3-3-|
                                                                   
---------------------------------|--------------------------------------|
---------------------------------|--------------------------------------|
-------5---4---2---0---2---5-4-2-|--------------------------------------|
--0--0---0---0---0---0---0-------|--5---5-5-5-5-5-5-5-3---3-3-3-3-3-3-3-|
                                                                   
---------------------------------|--------------------------------------|
---------------------------------|--------------------------------------|
-------5---4---2---0---2---5-4-2-|--------------------------------------|
--0--0---0---0---0---0---0-------|--5---5-5-5-5-5-5-5-3---3-3-3-3-3-3-3-|
                                                                         
---------------------------------|--------------------------------------|
---------------------------------|--------------------------------------|
-------5---4---2---0---2---5-4-2-|--------------------------------------|
--0--0---0---0---0---0---0-------|--5---5-5-5-5-5-5-5-3---3-3-3-3-3-3-3-|
                                                                    
---------------------------------|--------------------------------------|
---------------------------------|--------------------------------------|
-------5---4---2---0---2---5-4-2-|--------------------------------------|
--0--0---0---0---0---0---0-------|--5---5-5-5-5-5-5-5-3---3-3-3-3-3-3-3-|
                                                                  
---------------------------------|--------------------------------------|
---------------------------------|--------------------------------------|
-------5---4---2---0---2---5-4-2-|--------------------------------------|
--0--0---0---0---0---0---0-------|--5---5-5-5-5-5-5-5-3---3-3-3-3-3-3-3-|
                                                                    
---------------------------------|---------------------------------|
---------------------------------|---------------------------------|
-------5---4---2---0---2---5-4-2-|------------------------------5--|
--0--0---0---0---0---0---0-------|--5---5-5-5-5-5-5-5-3---3-3-3----|
                                                                            
-------------------------------------|-------------------------------------|
----------------7--------------------|----------------7--------------------|
--7--7-7-7-9-10---10-9-7-7-7-7-5--5--|--7--7-7-7-9-10---10-9-7-7-7-7-5--5--|
-------------------------------------|-------------------------------------|
                                                                         
--------------------------------------|---------------------------------|
--------------------------------------|---------------------------------|
--------------------------------------|-------5---4---2---0---2---5-4-2-|
--5---5-5-5-5-5-5-5-3---3-3-3-3-3-3-3-|--0--0---0---0---0---0---0-------|

--------------------------------------|---------------------------------|
--------------------------------------|---------------------------------|
--------------------------------------|-------5---4---2---0---2---5-4-2-|
--5---5-5-5-5-5-5-5-3---3-3-3-3-3-3-3-|--0--0---0---0---0---0---0-------|

--------------------------------------|---------------------------------|
--------------------------------------|---------------------------------|
--------------------------------------|-------5---4---2---0---2---5-4-2-|
--5---5-5-5-5-5-5-5-3---3-3-3-3-3-3-3-|--0--0---0---0---0---0---0-------|
                                                                
--------------------------------------|---------------------------------|
--------------------------------------|---------------------------------|
--------------------------------------|-------5---4---2---0---2---5-4-2-|
--5---5-5-5-5-5-5-5-3---3-3-3-3-3-3-3-|--0--0---0---0---0---0---0-------|
                                                                   
---------------------------------|-------------------------------------|
---------------------------------|----------------7--------------------|
------------------------------5--|--7--7-7-7-9-10---10-9-7-7-7-7-5--5--|
--5---5-5-5-5-5-5-5-3---3-3-3----|-------------------------------------|
                                                                           
-------------------------------------|---------------------------------------|
----------------7--------------------|---------------------------------------|
--7--7-7-7-9-10---10-9-7-7-7-7-5--5--|--7------------------------------5--5--|
-------------------------------------|-----0-0-0-0-0-0-0-0-0-0-0-0-0-0-------|
                                                                                
---------------------------------------|---------------------------------------|
---------------------------------------|---------------------------------------|
--7------------------------------5--5--|--7------------------------------5--5--|
-----0-0-0-0-0-0-0-0-0-0-0-0-0-0-------|-----0-0-0-0-0-0-0-0-0-0-0-0-0-0-------|
                                                                               
---------------------------------------|-------------------|------------------|
---------------------------------------|-------------------|------------------|
--7------------------------------5--5--|-------------------|------------------|
-----0-0-0-0-0-0-0-0-0-0-0-0-0-0-------|--0----------------|------------------|
                                                              
-------------------|---------------------|-------------------|
-------------------|---------------------|-------------------|
-------------------|---------------------|-------------------|
--0----------------|--0--------------0-0-|--0----------------|
                                                                     
------------------------|---------------------|---------------------|
--5-5--7----------------|---------------------|---------------------|
----------5--5-7--------|---------------------|---------------------|
------------------------|--0--------------0-0-|--0--------------0-0-|
                                                                            
-------------------|------------------------|------------------------------|
-------------------|--5-5--7----------------|------------------------------|
-------------------|----------5--5-7--------|--------------7-7-7-5-0-5-0-5-|
--0----------------|------------------------|--0----0--0-0-----------------|

----------------------------------|------------------------------|
----------------------------------|------------------------------|
--3----3--3h0---------------------|--------------7-7-7-5-0-5-0-5-|
--------------3-3-3-3-2-2-2-2-1-0-|--0----0--0-0-----------------|
                                                                  
----------------------------------|------------------------------|
----------------------------------|------------------------------|
--3----3--3h0---------------------|--------------7-7-7-5-0-5-0-5-|
--------------3-3-3-3-2-2-2-2-1-0-|--0----0--0-0-----------------|
                                                                  
----------------------------------|------------------------------|
----------------------------------|------------------------------|
--3----3--3h0---------------------|--------------7-7-7-5-0-5-0-5-|
--------------3-3-3-3-2-2-2-2-1-0-|--0----0--0-0-----------------|
                                                                           
----------------------------------|-------------------|-------------------|
----------------------------------|-------------------|-------------------|
--3----3--3h0---------------------|--7----------------|--5----------------|
--------------3-3-3-3-2-2-2-2-1-0-|--0----------------|-------------------|
                                                            
-------------------|--------------------|-------------------|
-------------------|--------------------|-------------------|
--7----------------|--5-----------------|--7----------------|
--0----------------|-----------5--------|--0----------------|
                                                                   
-------------------|-------------------|--------------------------|
-------------------|-------------------|--------------------------|
--5----------------|--7----------------|--5---------------7-7-5-5-|
-------------------|--0----------------|-----------5--5-5---------|
                                                          
-----------------------------|----------------------------|
---------------------9-------|----------------------------|
--7----7----7-9-9-10----5--5-|------------5-5-5-5-5--5--5-|
-----------------------------|--7----7--------------------|
                                                            
------------------------------|----------------------------|
------------------------------|--7-------------------------|
--5----5----5-5-5-5-9--10--10-|------------7-7-7-7----5--5-|
------------------------------|-------5------------7-------|
                                               
-----------------------------|----------------------------|
---------------------9-------|----------------------------|
--7----7----7-9-9-10----5--5-|------------5-5-5-5-5--5--5-|
-----------------------------|--7----7--------------------|
                                                            
------------------------------|----------------------------|
------------------------------|--7-------------------------|
--5----5----5-5-5-5-9--10--10-|------------7-7-7-7----5--5-|
------------------------------|-------5------------7-------|
                                                          
----------------------------|----------------------------|
--------------9-------------|----------------------------|
--7----7----7----7-10-9-7-5-|----------------------------|
----------------------------|--7----7----7-7-7-7-7--7--7-|
                                                     
----------------------------|-------------------------|
----------------------------|------------7-5----------|
--5----5----5----5-9-10--10-|-----------------9--5----|
--------------7-------------|--5----5---------------5-|
                                                  
----------------------------|----------------------------|
--------------9-------------|----------------------------|
--7----7----7----7-10-9-7-5-|----------------------------|
----------------------------|--7----7----7-7-7-7-7--7--7-|
                                                                                
----------------------------|----------------------------|---------------------|
----------------------------|----------------------------|---------------------|
--5----5----5----5-9-10--10-|------------7-7-7-7-7--5----|---------------------|
--------------5-------------|--5----5------------------5-|--0-------1--------3-|

--------------------------|----------------------------------------|
--------------------------|----------------------------------------|
------------7-8-10-8-7-5--|--7--7-7-7-7-7-7-7-8---8-8-8-8-8-8-8-10-|
---------1----------------|----------------------------------------|
                                     
------------------------------------------|
------------------------------------------|
----10-10-10-10-10-10-10-8--7-8-10-8-7-5--|
------------------------------------------|
                                         
----------------------------------------|
----------------------------------------|
--7--7-7-7-7-7-7-7-8---8-8-8-8-8-8-8-10-|
----------------------------------------|
                                      
------------------------------------------|
------------------------------------------|
----10-10-10-10-10-10-10-8--7-8-10-8-7-5--|
------------------------------------------|
                                   
----------------------------------------|
----------------------------------------|
--7--7-7-7-7-7-7-7-8---8-8-8-8-8-8-8-10-|
----------------------------------------|
                                                             
------------------------------------------|-----------------------|
------------------------------------------|-----------------------|
----10-10-10-10-10-10-10-8--7-8-10-8-7-5--|------------------2----|
------------------------------------------|--0--------0--0-0------|
                                              
----------------------------|-----------------------|
----------------------------|-----------------------|
--1--------1--1-1-1-2-1-----|------------------2----|
------------------------3-2-|--0--------0--0-0------|
                                                               
---------------------------------------|----------------------------|
---------------------------------------|----------------------------|
--1--1-1-1-1-1-1-0-1-1-1-1-0-1-0-0-1-0-|-----------------------2----|
---------------------------------------|--0--0-0-0--0-0-0--0-0------|
                                                         
---------------------------------|----------------------------|
---------------------------------|----------------------------|
--1--1-1-1--1-1-1--1-1-1-2-1-----|-----------------------2----|
-----------------------------3-2-|--0--0-0-0--0-0-0--0-0------|

---------------------------------------|
---------------------------------------|
--1--1-1-1-1-1-1-0-1-1-1-1-0-1-0-0-1-0-|
---------------------------------------|  
                                       
----------------------------------------|
----------------------------------------|
--7--7-7-7-7-7-7-7-8---8-8-8-8-8-8-8-10-|
----------------------------------------|
                                           
------------------------------------------|
------------------------------------------|
----10-10-10-10-10-10-10-8--7-8-10-8-7-5--|
------------------------------------------|
                                   
----------------------------------------|
----------------------------------------|
--7--7-7-7-7-7-7-7-8---8-8-8-8-8-8-8-10-|
----------------------------------------|
                                           
------------------------------------------|
------------------------------------------|
----10-10-10-10-10-10-10-8--7-8-10-8-7-5--|
------------------------------------------|
                                         
----------------------------------------|
----------------------------------------|
--7--7-7-7-7-7-7-7-8---8-8-8-8-8-8-8-10-|
----------------------------------------|
                                           
------------------------------------------|
------------------------------------------|
----10-10-10-10-10-10-10-8--7-8-10-8-7-5--|
------------------------------------------|
                                    
----------------------------------------|
----------------------------------------|
--7--7-7-7-7-7-7-7-8---8-8-8-8-8-8-8-10-|
----------------------------------------|
                                        
------------------------------------------|
------------------------------------------|
----10-10-10-10-10-10-10-8--7-8-10-8-7-5--|
------------------------------------------|
                                            
-----------------------------------------------|
-----------------------------------------------|
--5--5-5-5-5-5-5-5-5-5-5-5-5-5-5-5-5-5-5-5-5-5-|
-----------------------------------------------|
                                                   
--------------------------------------------------|
--------------------------------------------------|
--5-5-5-5-5-5-5-5-5-5-5-5-5-5-5-5-5-5-5-5-5-5-5-5-|
--------------------------------------------------|
                                                   
--------------------------------------------------|
--------------------------------------------------|
--5-5-5-5-5-5-5-5-5-5-5-5-5-5-5-5-5-5-5-5-5-5-5-5-|
--------------------------------------------------|
                                                  
--------------------------------------------------|
--------------------------------------------------|
--5-5-5-5-5-5-5-5-5-5-5-5-5-5-5-5-5-5-5-5-5-5-5-5-|
--------------------------------------------------|
                                                   
--------------------------------------------------|
--------------------------------------------------|
--5-5-5-5-5-5-5-5-5-5-5-5-5-5-5-5-5-5-5-5-5-5-5-5-|
--------------------------------------------------|
                                                   
--------------------------------------------------|
--------------------------------------------------|
--5-5-5-5-5-5-5-5-5-5-5-5-5-5-5-5-5-5-5-5-5-5-5-5-|
--------------------------------------------------|
                                
-----------------------------------|
-------------------5---------------|
--5--5-5-5-5-5-5-5---8--5-8-7--8-7-|
-----------------------------------|
                                              
---------------------------------------------|
---------------------------------------------|
--5--5-5-5-5-5-5-5-5-5-5-5-5-5-5-5-5-5-5-5-0-|
---------------------------------------------|
                                
-----------------------------------|
-------------------5---------------|
--5--5-5-5-5-5-5-5---8--5-8-7--8-7-|
-----------------------------------|
                                              
---------------------------------------------|
---------------------------------------------|
--5--5-5-5-5-5-5-5-5-5-5-5-5-5-5-5-5-5-5-5-0-|
---------------------------------------------|
                                 
-----------------------------------|
-------------------5---------------|
--5--5-5-5-5-5-5-5---8--5-8-7--8-7-|
-----------------------------------|
                                         
---------------------------------------------|
---------------------------------------------|
--5--5-5-5-5-5-5-5-5-5-5-5-5-5-5-5-5-5-5-5-0-|
---------------------------------------------|
                                    
-----------------------------------|
-------------------5---------------|
--5--5-5-5-5-5-5-5---8--5-8-7--8-7-|
-----------------------------------|
                                          
---------------------------------------------|
---------------------------------------------|
--5--5-5-5-5-5-5-5-5-5-5-5-5-5-5-5-5-5-5-5-0-|
---------------------------------------------|
                                                                  
-------------------------------------|--------------------------------|
-------------------------------------|--------------------5-7-8-7-5---|
--10--10-10-10-10-10-8--8-8-8-8-8-8--|--6--6-6-6-6-6-5--5-----------0-|
-------------------------------------|--------------------------------|
                                                                      
-------------------------------------|-------------------------------|
-------------------------------------|-------------------------------|
--10--10-10-10-10-10-8--8-8-8-8-8-8--|--6--6-6-6-6-6-5--5-5-5-5--5-0-|
-------------------------------------|-------------------------------|
                                                                      
-------------------------------------|-------------------------------|
-------------------------------------|-------------------------------|
--10--10-10-10-10-10-8--8-8-8-8-8-8--|--6--6-6-6-6-6-5--5-5-5-5--5-0-|
-------------------------------------|-------------------------------|
                                                            
-------------------------------------|---------------------------------|
-------------------------------------|---------------------------------|
--10--10-10-10-10-10-8--8-8-8-8-8-8--|--6--6-6-6-6-8-6-5--5-5-5-5--5-0-|
-------------------------------------|---------------------------------|
                                                                      
-------------------------------------|-------------------------------|
-------------------------------------|-------------------------------|
--10--10-10-10-10-10-8--8-8-8-8-8-8--|--6--6-6-6-6-6-5--5-5-5-5--5-0-|
-------------------------------------|-------------------------------|
                                                    
-------------------------------------|-------------------|
-------------------------------------|-------------------|
--10--10-10-10-10-10-8--8-8-8-8-8-8--|--6--6-6-6-6-8-6-5-|
-------------------------------------|-------------------|
                                          
-----------------------------------------------|
---------------------------------------------5-|
---5-5-5-5-5-5-5-5-5-5-5-5-5-5-5-5-5-5-5-5-5---|
-----------------------------------------------|
                                 
-----------------------------------|
-----------------------------------|
--8--5-8-7--8-7-5--5-5-5-5-5-5-5-0-|
-----------------------------------|
                                          
---------------------------------------------|
-------------------------------------------5-|
--5--5-5-5-5-5-5-5-5-5-5-5-5-5-5-5-5-5-5-5---|
---------------------------------------------|
                                    
-----------------------------------|
-----------------------------------|
--8--5-8-7--8-7-5--5-5-5-5-5-5-5-0-|
-----------------------------------|
                                          
---------------------------------------------|
-------------------------------------------4-|
--4--4-4-4-4-4-4-4-4-4-4-4-4-4-4-4-4-4-4-4---|
---------------------------------------------|
                                    
-----------------------------------|
-----------------------------------|
--7--4-7-6--7-6-4--4-4-4-4-4-4-4-0-|
-----------------------------------|
                                              
---------------------------------------------|
-------------------------------------------5-|
--5--5-5-5-5-5-5-5-5-5-5-5-5-5-5-5-5-5-5-5---|
---------------------------------------------|
                                    
-----------------------------------|
-----------------------------------|
--8--5-8-7--8-7-5--5-5-5-5-5-5-5-0-|
-----------------------------------|
                                          
---------------------------------------------|
-------------------------------------------4-|
--4--4-4-4-4-4-4-4-4-4-4-4-4-4-4-4-4-4-4-4---|
---------------------------------------------|

-----------------------------------|
-----------------------------------|
--7--4-7-6--7-6-4--4-4-4-4-4-4-4-0-|
-----------------------------------|
                                           
---------------------------------------------|
-------------------------------------------5-|
--5--5-5-5-5-5-5-5-5-5-5-5-5-5-5-5-5-5-5-5---|
---------------------------------------------|
                                                                   
-----------------------------------|------------------------------|
-----------------------------------|------------------------------|
--8--5-8-7--8-7-5--5-5-5-5-5-5-5-0-|--5-5-5-5-5-5-5-5-5-5-5-5-5-5-|
-----------------------------------|------------------------------|
                                                         
------------------------------|------------------------------|
------------------------------|------------------------------|
--6-6-6-6-6-6-6-6-6-6-6-6-6-6-|--5-5-5-5-5-5-5-5-5-5-5-5-5-5-|
------------------------------|------------------------------|

------------------------------|------------------------------|
------------------------------|------------------------------|
--6-6-6-6-6-6-6-6-6-6-6-6-6-6-|--7-7-7-7-7-7-7-7-7-7-7-7-7-7-|
------------------------------|------------------------------|
                                                           
------------------------------|------------------------------|
------------------------------|------------------------------|
--8-8-8-8-8-8-8-8-8-8-8-8-8-8-|--7-7-7-7-7-7-7-7-7-7-7-7-7-7-|
------------------------------|------------------------------|
                                                              
------------------------------|------------------------------|
------------------------------|------------------------------|
--8-8-8-8-8-8-8-8-8-8-8-8-8-8-|----------------3-3-3-3-3-3-0-|
------------------------------|--5-5-5-5-5-5-5---------------|
                                                         
------------------------------|------------------------------|
------------------------------|------------------------------|
--2-2-2-2-2-2-0-5-5-5-5-5-5-5-|----------------3-3-3-3-3-3-0-|
------------------------------|--5-5-5-5-5-5-5---------------|
                                                       
--------------------------|------------------------------|
--------------------------|------------------------------|
--2-2-2-2-2-2-0-5-5-5-5/--|----------------3-3-3-3-3-3-0-|
--------------------------|--5-5-5-5-5-5-5---------------|
                                                            
------------------------------|------------------------------|
------------------------------|------------------------------|
--2-2-2-2-2-2-0-5-5-5-5-5-5-5-|----------------3-3-3-3-3-3-0-|
------------------------------|--5-5-5-5-5-5-5---------------|
                                                                         
----------------------------|---------------------|---------------------|
----------------------------|---------------------|---------------------|
--2-2-2-2-2-2-0-5-5-5-5-5/--|--3--2--0------------|--3--2---------------|
----------------------------|---------------------|--------0------------|
                                                                   
---------------------|---------------------|------|-------------------|
---------------------|---------------------|------|-------------------|
--3--2--0------------|--3--2---------------|------|-------------------|
---------------------|--------0------------|------|--0----------------|
                                                                   
---------------------|-------------------|----------------------------|
---------------------|-------------------|--5-5--7----------7-9--9-7--|
---------------------|-------------------|----------5--5-7------------|
--0--------------0-0-|--0----------------|----------------------------|

---------------------|---------------------|-------------------|
---------------------|---------------------|-------------------|
---------------------|---------------------|-------------------|
--0--------------0-0-|--0--------------0-0-|--0----------------|
                                                   
------------------------|------------------------------|
--5-5--7----------------|------------------------------|
----------5--5-7--------|--------------7-7-7-5-0-5-0-5-|
------------------------|--0----0--0-0-----------------|
                                                                  
----------------------------------|------------------------------|
----------------------------------|------------------------------|
--3----3--3h0---------------------|--------------7-7-7-5-0-5-0-5-|
--------------3-3-3-3-2-2-2-2-1-0-|--0----0--0-0-----------------|
                                                                  
----------------------------------|------------------------------|
----------------------------------|------------------------------|
--3----3--3h0---------------------|--------------7-7-7-5-0-5-0-5-|
--------------3-3-3-3-2-2-2-2-1-0-|--0----0--0-0-----------------|
                                                                
----------------------------------|------------------------------|
----------------------------------|------------------------------|
--3----3--3h0---------------------|--------------7-7-7-5-0-5-0-5-|
--------------3-3-3-3-2-2-2-2-1-0-|--0----0--0-0-----------------|
                                                            
----------------------------------|------------------------------|
----------------------------------|------------------------------|
--3----3--3h0---------------------|--------------7-7-7-5-0-5-0-5-|
--------------3-3-3-3-2-2-2-2-1-0-|--0----0--0-0-----------------|
                                                            
----------------------------------|------------------------------|
----------------------------------|------------------------------|
--3----3--3h0---------------------|--------------7-7-7-5-0-5-0-5-|
--------------3-3-3-3-2-2-2-2-1-0-|--0----0--0-0-----------------|
                                                                  
----------------------------------|------------------------------|
----------------------------------|------------------------------|
--3----3--3h0---------------------|--------------7-7-7-5-0-5-0-5-|
--------------3-3-3-3-2-2-2-2-1-0-|--0----0--0-0-----------------|
                                                                  
----------------------------------|------------------------------|
----------------------------------|------------------------------|
--3----3--3h0---------------------|--------------7-7-7-5-0-5-0-5-|
--------------3-3-3-3-2-2-2-2-1-0-|--0----0--0-0-----------------|
Composição de Jon Schaffer
Colaboração e revisão:
  • Taino Vieira
29 exibições

0 comentários

Ver todos os comentários

Conseguiu tocar?

0 Tocaram 0 Ainda não

Grave um vídeo tocando When The Night Falls e nos envie!

00:00 / 00:00
outros vídeos desta música
repetir qualidade Automático
Outros vídeos desta música
00:00 / 00:00
Automático

Cifra Club Pro

Aproveite o Cifra Club com benefícios exclusivos e sem anúncios
Cifra Club Pro
Aproveite o Cifra Club com benefícios exclusivos e sem anúncios
OK