Cifra Club

Aprenda

Written On The Walls

Iced Earth

Tab de baixo: Principal
Intro

|------|------|------|------|------|------|------|------|
|------|------|------|------|------|------|------|------|
|------|------|------|------|------|------|------|------|
|--0---|--0---|--00--|--00--|--0---|--00--|--0---|--0---|



Riff 1

|------|------|------|------|------|------|------|------|
|------|------|------|------|------|------|------|------|
|------|------|------|------|------|------|------|------|
|-0000-|-0003-|-2222-|-2225-|-3333-|-3335-|-2222-|-2223-|



Fill

|------|
|------|
|------|
|--0---|



Riff 2

|------|------|------|------|------|------|------|------|
|------|------|------|------|------|------|------|------|
|------|------|------|------|------|------|------|------|
|-000--|-000--|-000--|-000--|-002--|-222--|-222--|-222--|

|------|------|------|------|------|------|------|------|
|------|------|------|------|------|------|------|------|
|------|------|------|------|------|------|------|------|
|-223--|-333--|-333--|-333--|-332--|-222--|-222--|-222--|



Riff 3

|------|------|------|------|------|------|------|------|
|------|------|------|------|------|------|------|------|
|------|------|------|------|------|------|------|------|
|-0000-|-0000-|-0000-|-0000-|-2222-|-2222-|-2222-|-2222-|

|------|------|------|------|------|------|------|------|
|------|------|------|------|------|------|------|------|
|------|------|------|------|------|------|------|------|
|-3333-|-3333-|-3333-|-3333-|-2222-|-2222-|-2222-|-2222-|



Riff 4

|------|------|------|------|
|------|------|------|------|
|--7---|------|------|--9---|
|--0---|--2---|--3---|------|



Riff 5

|------|------|------|------|------|------|------|------|
|------|------|------|------|------|------|------|------|
|------|------|------|------|------|------|------|------|
|-000--|-000--|-0000-|-000--|-002--|-222--|-2222-|-222--|

|------|------|------|------|------|------|------|------|
|------|------|------|------|------|------|------|------|
|------|------|------|------|------|------|------|------|
|-223--|-333--|-3333-|-333--|-332--|-222--|-2222-|-222--|



Riff 6

	 Repeat a lot of times
|------||------|------|------|------||
|------||------|------|------|------||
|------||------|------|------|------||
|023/14||-/12--|-/14--|-/15--|-/14--||	 



Riff 7

|------|------|------|------|------|------|------|------|------|------|
|------|------|------|------|------|------|------|------|------|------|
|------|------|------|------|------|------|------|------|------|------|
|0-0-0-|--0---|0-0-0-|0-0-0-|--0---|0-0-0-|0-0-0-|--0---|0-0---|0-0-0-|



Solo: Play Riff 2



Riff 8

|------|------|------|------|------|------|------|------|
|------|------|------|------|------|------|------|------|
|------|------|------|------|------|------|------|------|
|-000--|-000--|-000--|-000--|-000--|-000--|-333--|-222--|



Fill

|------|
|------|
|------|
|--0---|



Riff 9

|------|------|------|------|------|------|------|------|------|
|------|------|------|------|------|------|------|------|------|
|------|------|------|------|------|------|------|------|------|
|--3---|---2--|------|---0--|------|--3---|--0---|------|---2--|
Composição de Dave Abell / Randall Shawver / Tom Schaffer
92 exibições

0 comentários

Ver todos os comentários

Conseguiu tocar?

0 Tocaram 0 Ainda não

Grave um vídeo tocando Written On The Walls e nos envie!

00:00 / 00:00
outros vídeos desta música
repetir qualidade Automático
Outros vídeos desta música
00:00 / 00:00
Automático

Cifra Club Pro

Aproveite o Cifra Club com benefícios exclusivos e sem anúncios
Cifra Club Pro
Aproveite o Cifra Club com benefícios exclusivos e sem anúncios
OK