Notificações Amigos pendentes

      Iggy Pop

      Beside You

      2.743 exibições
      Intro+verses
      E-------------------------
      A-15----15----15----15----
      D----14----15----18----15-
      G-------------------------
      
      
      E----------------
      A-8---8--3/8---8-
      D---8--------8---
      G----------------
      
      Refrain
      
      E-6-6-6-6-6-8-8-8-8-8-10-10-10-10-10--10-8-8-6-6-
      A------------------------------------------------
      D------------------------------------------------
      G------------------------------------------------
      
      at the end
      E-6-6-6-6-6-8-8-8-8-8-10-10-10-10-10--8-8-
      A-----------------------------------------
      D-----------------------------------------
      G-----------------------------------------
      
      verse now goes like:
      
      E---------------------------------
      A-888888--------88888---8-8---8-8-
      D--------888888-------8-----8-----
      G---------------------------------
      
      later:
      
      E--------------------------------------------
      A-8-8-8-8-8------------5-5-5-5-5-5-3-3-3-3-3-
      D----------8-8-8-8-8-8-----------------------
      G--------------------------------------------
      
      E--------------------------------------------
      A-8-8-8-8-8------------3-3-3-3-3-------------
      D----------8-8-8-8-8-8-----------------------
      G--------------------------------------------
      
      that's all!
      
      
      1
      Tb By: punk77
      
      Any questions or comments: punkrnaumann@hotmail.com       Enjoy!
        Composição: Iggy Pop / Steve JonesColaboração e revisão:
        • Punk77

        Comentários 1

        140 .
        • leospick leospick: Em 29/08/2012 23:50

          Por favor alguem poste pra violão.

        140 cancelar

        conseguiu tocar?

        covers

        Grave um vídeo tocando Beside You e mande pra gente!

        Ex.: http://www.youtube.com/watch?v=0IvSvIwGdwk
        ver covers de outras músicas »
        0:00 / 0:00

        Capítulos

          1 versão de violão dificuldade exibições contribuição e correção
          1 versão de guitarra dificuldade exibições contribuição e correção
          1 versão de cavaco dificuldade exibições contribuição e correção
          1 versão de teclado dificuldade exibições contribuição e correção
          1 versão de baixo exibições contribuição e correção
          play/pausefechar subir/descer velocidade
          6ª corda E5ª corda A4ª corda D3ª corda G2ª corda B1ª corda E
            acordes
            publicidade
            fechar
            ok