Cifra Club

Divino Companheiro Tablatura

Igreja Cristã Maranata

Cifra: Principal (violão e guitarra)
tom: D
violão e Viola caipira (tom E)

Divino Companheiro

1 parte  

   4--5--7--8-(9)----11--12--     
   5--7--9--10------12--14--

2 parte
  
  12--12--9--7--5--7--5--9--11
  14--14-10-9--7--9--7-10--12

3 parte
 
11--11--7--5--4--5--4--5--7--9--7
12--12--9--7--5--7--5--7--9--10-9


4 parte

5/ 7--7--7--7--9--11
7/ 9--9--9--9-10-12


---------------------------------------
(repetindo)

1 parte

8-(9)--11--12--12--9--7--5--7--5--7
10-----12--14--14-10-9--7--9--7--9

2 parte
  
9---11--11--7--5--4--5--4--5--7
10-12-12---9--7--5--7--5--7--9

3 parte

9--7--5--4--2--HARMÔNICO
10-9-7--5--4--HARMoNICO
00:00 / 00:00
Outros vídeos desta música
Repetir
Outros vídeos desta música
Composição de Mara Lima
Colaboração e revisão:
  • Marco Aurélio
9.791 exibições
    • ½ Tom
    • A
    • Bb
    • B
    • C
    • Db
    • D
    • Eb
    • E
    • F
    • F#
    • G
    • Ab
  • Adicionar à lista

    0 comentários

    Ver todos os comentários

    Conseguiu tocar?

    0 Tocaram 0 Ainda não

    Grave um vídeo tocando Divino Companheiro Tablatura e nos envie!

    Entre para oCifra Club PRO

    Tenha acesso a benefícios exclusivos no App e no Site

    • Chega de anúncios

    • Prioridade de compra em lançamentos

    • Mais recursos no app do Afinador

    • Atendimento Prioritário

    • Descontos nos produtos Cifra Club

    • Ajude a produzir mais conteúdo

    00:00 / 00:00

    Cifra Club Pro

    Aproveite o Cifra Club com benefícios exclusivos e sem anúncios
    Cifra Club Pro
    Aproveite o Cifra Club com benefícios exclusivos e sem anúncios
    OK