Cifra Club

I Bet My Life

Imagine Dragons

Cifra: Principal (violão e guitarra)
exibições 55.812
Tom: G
Intro: Vocalize

Primeira Parte:

Parte 1
E|----------------------------------------------------|
B|---0---0---0---0---0---0---0---0--------------------|
G|----------------------------------------------------|
D|----------------------------------------------------|
A|----------------------------------------------------|
E|-3---3---3---3---3---3---3---3----------------------|


Parte 2
E|----------------------------------------------------|
B|---8---8----7---7----0---0---5---5------------------|
G|----------------------------------------------------|
D|----------------------------------------------------|
A|-7---7----5---5------------3---3--------------------|
E|-------------------3---3----------------------------|


Parte 3
E|----------------------------------------------------|
B|---8---8----7---7----0---0---0---0------------------|
G|----------------------------------------------------|
D|----------------------------------------------------|
A|-7---7----5---5-------------------------------------|
E|-------------------3---3---3---3--------------------|


Parte 4
E|----------------------------------------------------|
B|---8---8----7---7----0---0---0---0---0---0----------|
G|----------------------------------------------------|
D|----------------------------------------------------|
A|-7---7----5---5-------------------------------------|
E|-------------------3---3---3---3---3---3---3--------|


Parte 4 Variação
E|----------------------------------------------------|
B|---8---8----7---7----0---0--------------------------|
G|----------------------------------------------------|
D|----------------------------------------------------|
A|-7---7----5---5-------------------------------------|
E|-------------------3---3---3------------------------|



Em          D
  I know I took the path 
      G               C
That you would never want for me
Em          D                   G
  I know I let you down, didn't I
Em          D
  So many sleepless nights
       G               C
Where you were waiting up on me
      Em           D             G
Well, I'm just a slave unto the night
        Em            D
Now, remember when I told you
            G                  C
That's the last you'll see of me
   Em
Remember when 
    D                G
I broke you down to tears
Em          D
  I knew I took the path
      G               C
That you would never want for me
Em            D                    G
  I gave you hell through all the years


Refrão:

   G     C      G
So I, I bet my life
   C      G       C      G       D
I bet my life, I bet my life on you
   G     C      G
Oh I, I bet my life
   C      G       C      G       D
I bet my life, I bet my life on you


Repete a Primeira Parte:

Em            D
  I've been around the world
     G           C
And never in my wildest dreams
Em              D               G
  Would I come running home to you
Em             D
  I've told a million lies
     G            C
But now I tell a single truth
Em               D             G
  There's you in everything I do
        Em            D
Now, remember when I told you
            G                  C
That's the last you'll see of me
   Em
Remember when 
    D                G
I broke you down to tears
Em          D
  I knew I took the path
      G               C
That you would never want for me
Em            D                    G
  I gave you hell through all the years

Repete o Refrão:

   G     C      G
So I, I bet my life
   C      G       C      G       D
I bet my life, I bet my life on you
   G     C      G
Oh I, I bet my life
   C      G       C      G       D
I bet my life, I bet my life on you


Segunda Parte:

Am  D  Em  D/F#  G

 Am                      D
Don't tell me that I'm wrong
                         Em
I've walked that road before
     D/F#            G
And left you on your own
       Am                            D
And, please, believe them when they say
                          Em
That it's left for yesterday
         D/F#            G
And the records that I play
  G#º       Am         D
Please, forgive me for all I've done


Repete o Refrão:

   G     C      G
So I, I bet my life
   C      G       C      G       D
I bet my life, I bet my life on you
   G     C      G
Oh I, I bet my life
   C      G       C      G       D
I bet my life, I bet my life on you


Solo Final:

Parte 1 de 7
E|----------------------------------------------------|
B|-----3-3-----3---5p3--------------------------------|
G|-2/4-----2/4---4-----4\2----------------------------|
D|----------------------------------------------------|
A|----------------------------------------------------|
E|----------------------------------------------------|


Parte 2 de 7
E|----------------------------------------------------|
B|-----3-3-----3---5p3--------------------------------|
G|-2/4-----2/4---4-----4\2----------------------------|
D|----------------------------------------------------|
A|----------------------------------------------------|
E|----------------------------------------------------|


Parte 3 de 7
E|----------------------------------------------------|
B|-----3-3-----3---5p3-5/8-7-5-3----------------------|
G|-2/4-----2/4---4---------------5-4-2----------------|
D|----------------------------------------------------|
A|----------------------------------------------------|
E|----------------------------------------------------|


Parte 4 de 7
E|-------10-10-------10----12p10----------------------|
B|-10/12-------10/12----12-------12\10----------------|
G|----------------------------------------------------|
D|----------------------------------------------------|
A|----------------------------------------------------|
E|----------------------------------------------------|


Parte 5 de 7
E|-------10-10-------10----12p10----------------------|
B|-10/12-------10/12----12-------12\10----------------|
G|----------------------------------------------------|
D|----------------------------------------------------|
A|----------------------------------------------------|
E|----------------------------------------------------|


Parte 6 de 7
E|-------10-10-------10----12p10----------------------|
B|-10/12-------10/12----12----------------------------|
G|----------------------------------------------------|
D|----------------------------------------------------|
A|----------------------------------------------------|
E|----------------------------------------------------|


Parte 7 de 7
E|-12/15-14-12-10-12-14\------------------------------|
B|----------------------------------------------------|
G|----------------------------------------------------|
D|----------------------------------------------------|
A|----------------------------------------------------|
E|----------------------------------------------------|


Base 2x:

( G  C  G ) (3x)  D
( G  C  G ) (3x)  D  G
Acordes para:
    Colaboração e revisão:
    • Gustavo Cunha
    • Spider Girl

    0 comentários

    mostrar mais comentários

    Conseguiu tocar?

    17 tocaram 2 ainda não

    Grave um vídeo tocando I Bet My Life e mande pra gente!

    00:00 / 00:00
    outros vídeos desta música
    repetir qualidade Automático
    Outros vídeos desta música
    00:00 / 00:00
    Automático
    Capítulos
    • Tocando a Música
    • Dicas Iniciais / Equipamentos
    • Acordes da Introdução e Primeira Parte
    • Tocando a Introdução e Primeira Parte
    • Primeira Parte - Parte 1 de 4
    • Primeira Parte - Parte 2 de 4
    • Primeira Parte - Parte 3 de 4
    • Primeira Parte - Parte 4 de 4
    • Ensinando o Ritmo Padrão da Música
    • Tocando o Refrão
    • Ensinando o Ritmo do Refrão
    • Acordes da Segunda Parte
    • Tocando a Segunda Parte
    • Ensinando o Ritmo da Segunda Parte
    • Tocando o Solo Final
    • Ensinando o Solo Final
    • Solo Final - Parte 1 de 7
    • Solo Final - Parte 2 de 7
    • Solo Final - Parte 3 de 7
    • Solo Final - Parte 4 de 7
    • Solo Final - Parte 5 de 7
    • Solo Final - Parte 6 de 7
    • Solo Final - Parte 7 de 7
    • Encerramento
    • Ficha Técnica / Erros de Gravação
    OK