Cifra Club

Aprenda

In Flames

In Flames

Cifra: Principal (violão e guitarra)
Tom: C
Album: Lunar strain
Written by Jesper Strömblad
Lyrics by Mikael Stanne
tabbed by Nuclear Bo
Email:*

Tuning D

Acoustic Break
------------0------------------0------------------------------------------------
--------------0------------------0-----------1--------1-------3-----------------
-------0--------0---------0--------------------2--------0-------0---------------
---------2--------2---------2--------------2--------2-------------4----0--0-----
-----2------------------2----------------0--------3---------5-------------------
---0------------------0--------------0-3------------------------------3--2---0--


==============

Album:Lunar Strain From:1993
Written By: *ömblad
Vocals by: Mikael Stanne
Homepage to inflames *
Tabbed By: Lord Hypnos From Suburial Oath
Homepage:*
Tune To D
Correction /=Slide p=Pulloff h=Hammer on b=Bend 
r=Relese fb=Full bend *=harony flasions
 
Solo After the Acoustic brake
E--/10---10/12-12-12-13-13p12h13p12-12---------------------------------------------------|
B-------------------------------------13-13br*--------------------------------------------|
G----------------------------------------------14-12----12br*----------------12-12br*------|
D----------------------------------------------------15------15-12----12h15---------15-12|
A------------------------------------------------------------------15--------------------|


Continue
B----------------------------------------15-----20p15h18p15h20p15h18p15h20p15h18p15h20p15h18p15h20p15h18p15h20p15h18p15h20-|
G-------------------------------12----12----14-------------------------------------------------------------------------------|
D-------------------12----12h15----15--------------------|
A----------------------15-------------------|

Continue
------------------------------|
-------------------------------|
--17p14----14br*-------------------------|
--------17--------17-14-----------15h17-17br*p15---------------------15h17-17fb-r-p---15h17-17fb-17b-|
-------------------------17-15h17----------------17---------15--15h17---------------17-|
----------------------------------------------------15-16-17--17-------|

If You HAve Any Questions Visit me at *
Composição de Mikael Stanne
891 exibições
    • ½ Tom
    • A
    • Bb
    • B
    • C
    • Db
    • D
    • Eb
    • E
    • F
    • F#
    • G
    • Ab
  • Adicionar à lista

    0 comentários

    Mostrar mais comentários

    Conseguiu tocar?

    0 Tocaram 0 Ainda não

    Grave um vídeo tocando In Flames e mande pra gente!

    00:00 / 00:00
    outros vídeos desta música
    repetir qualidade Automático
    Outros vídeos desta música
    00:00 / 00:00
    Automático

    Cifra Club Pro

    Aproveite o Cifra Club com benefícios exclusivos e sem anúncios
    7 dias grátis
    Cifra Club Pro
    Aproveite o Cifra Club com benefícios exclusivos e sem anúncios
    7 dias grátis
    OK