Enviar cifraEntrar

A crow left of the murder

Incubus

Cifra: Principal
exibições 9.725
Tom: E
Transcrito por: Renato Carapiá Brunetti

Afinação Padrão: (E A D G B E)

Introdução e Verso "Riff Principal".
- Ouça a Música e acompanhe passo a passo! ( STEP BY STEP )

                                   2x                                     1x
E| ---------------------------------|  E| ---------------------------------|
B| ---------------------------------|  B| ---------------------------------|
G| ---------------------------------|  G| -------6-------------------------|
D| -------7-------------------------|  D| ---------------------------------|
A| ---7-9--9-7-9--------2-----------|  A| ---7-9--9-7-9--------2-----------|
E| -0-------------0-2-4---4-2-4-----|  E| -0-------------0-2-4---4-2-4-----|

                                   1x  
E| ---------------------------------|
B| ---------------------------------|
G| ---------------------------------|  
D| -------7-------------4-4-4-4-----|  
A| ---7-9--9-7-9--------4-4-4-4-----|  
E| -0-------------0-2-4-2-2-2-2-----|


Refrão:


E|-3------------5------7-----------||
B|-3------------5------7-----------||
G|-4------------7------8-----------||
D|-5------------7------7-----------||
A|-5------------5------9-----------||
E|-3------------5------7-----------||


Ponte (Sem Vocal):


E|---------------------------------||
B|---------------------------------||
G|-4-4-4-4-4-4---7-7-7-7-7-7-------||
D|-0-0-0-0-0-0---0-0-0-0-0-0-------||
A|---------------------------------||
E|---------------------------------||


E|---------------------------------||
B|---------------------------------||
G|-4-4-4-4-4-4---5-4-5-4-5-4-------||
D|-0-0-0-0-0-0---0-0-0-0-0-0-------||
A|---------------------------------||
E|---------------------------------||


E|---------------------------------||
B|---------------------------------||
G|-4-4-4-4-4-4---7-7-7-7-7/9-------||
D|-0-0-0-0-0-0---0-0-0-0-0-0-------||
A|---------------------------------||
E|---------------------------------||


E|---------------------------------||
B|---------------0-0-0-0-0-0-------||
G|-4-4-4-4-4-4---5-4-5-4-5-4-------||
D|-0-0-0-0-0-0---0-0-0-0-0-0-------||
A|---------------------------------||
E|---------------------------------||


Ponte (Com Vocal):


E|---------------------------------||
B|-0-0-0-0-0-0---0-0-0-0-0-0-------||
G|-4-4-4-4-4-4---7-7-7-7-7/9-------||
D|-0-0-0-0-0-0---0-0-0-0-0-0-------||
A|---------------------------------||
E|---------------------------------||


E|---------------------------------||
B|-0-0-0-0-0-0---0-0-0-0-0-0-------||
G|-4-4-4-4-4-4---5-4-5-4-5-4-------||
D|-0-0-0-0-0-0---0-0-0-0-0-0-------||
A|---------------------------------||
E|---------------------------------||


E|---------------------------------||
B|-0-0-0-0-0-0---0-0-0-0-0-0-------||
G|-4-4-4-4-4-4---7-7-7-7-7/9-------||
D|-0-0-0-0-0-0---0-0-0-0-0-0-------||
A|-2-2-2-2-2-2---5-5-5-5-5-7-------||
E|---------------------------------||


E|---------------------------------||
B|-0-0-0-0-0-0---0-0-0-0-0-0-------||
G|-4-4-4-4-4-4---5-4-5-4-5-4-------||
D|-0-0-0-0-0-0---0-0-0-0-0-0-------||
A|-2-2-2-2-2-2---3-2-3-2-3-2-------||
E|---------------------------------||


E|-0-0-0-0-0-0---0-0-0-0-0-0-------||
B|-0-0-0-0-0-0---0-0-0-0-0-0-------||
G|-4-4-4-4-4-4---7-7-7-7-7-7-------||
D|-0-0-0-0-0-0---0-0-0-0-0-0-------||
A|-2-2-2-2-2-2---5-5-5-5-5-5-------||
E|---------------------------------||


E|-0-0-0-0-0-0---0-0-0-0-0-0-------||
B|-0-0-0-0-0-0---0-0-0-0-0-0-------||
G|-4-4-4-4-4-4---5-4-5-4-5-4-------||
D|-0-0-0-0-0-0---0-0-0-0-0-0-------||
A|-2-2-2-2-2-2---3-2-3-2-3-2-------||
E|---------------------------------||


E|-0-0-0-0-0-0---0-0-0-0-0-0-------||
B|-0-0-0-0-0-0---0-0-0-0-0-0-------||
G|-4-4-4-4-4-4---7-7-7-7-7-7-------||
D|-0-0-0-0-0-0---0-0-0-0-0-0-------||
A|-2-2-2-2-2-2---5-5-5-5-5-5-------||
E|---------------------------------||


E|-0-0-0-0-0-0---0-0-0-0-0-0-------||
B|-0-0-0-0-0-0---0-0-0-0-0-0-------||
G|-4-4-4-4-4-4---5-4-5-4-5-4-------||
D|-0-0-0-0-0-0---0-0-0-0-0-0-------||
A|-2-2-2-2-2-2---3-2-3-2-3-2-------||
E|---------------------------------||


Riff Principal Muda e Fica só assim:
                                    
E| ---------------------------------|
B| ---------------------------------|
G| ---------------------------------|  
D| -------7-------------4-4-4-4-----|  
A| ---7-9--9-7-9--------4-4-4-4-----|  
E| -0-------------0-2-4-2-2-2-2-----|

Riff Final:


E|---------------------------------||
B|-----4-----4-----4-----4---------||
G|-1-----1-----1-----1-------------||
D|---4-----4-----4-----4-----------||
A|---------------------------------||
E|---------------------------------||


FINAL:


E|---------------------------------||
B|---------------------------------||
G|---------------------------------||
D|-------4-4-4-2-------------------||
A|-------4-4-4-2-------------------||
E|-0-2-0-2-2-2-0-------------------||



Eu tenho Uma versão completinha e detalhada pra quem não entendeu essa,
eu tenho uma versão detalhada, manda um e-mail!! 

-Qualquer Dúvida sobre esta ou outra música do INCUBUS mande um e-mail:
  • 1
  • 2
  • 3
  • 4
  • 5
  • 6
  • 7
  • 8
  • 9
  • 10
  • 11
  • 12

    0 comentários

      mostrar mais comentários

      Conseguiu tocar?

      0tocaram0ainda não

      Grave um vídeo tocando A crow left of the murder e mande pra gente!

      00:00 / 00:00
      outros vídeos desta música
      repetirqualidadeautomática
      • automática
      Outro vídeos desta música
        00:00 / 00:00
        automática
        • automática
        Acordes para:violão e guitarra
        dificuldadeexibiçõescontribuições
        1 versão de Tab de baixoexibiçõescontribuições
        1 versão de Guitar Proformatodownloadscontribuição
        fecharplay/pause subir/descer velocidade
          Acordes para:violão e guitarra
          acordes
          fechar
          OK