Cifra Club

A Kiss To Send Us Off

Incubus

Cifra: Principal
exibições 5.136
Tom: C
Afinação Normal

Intro/Bridge 
|-------------| 
|-------------| 
|---11---12---| 
|---12---12---| 
|--(10)-(10)--| 
|-------------| 

 Chorus 
|---------------------|---------------------| 
|---------------------|---------------------| 
|---------------------|-5-5-5-5-5-x-x-8-8-8-| 
|-5-5-x-x-8-x-x-2-2-2-|-5-5-5-5-5-x-x-8-8-8-| 
|-5-5-x-x-8-x-x-2-2-2-|-3-3-3-3-3-x-x-6-6-6-| 
|-3-3-x-x-6-x-x-0-0-0-|---------------------| 

 Verse 
|-------------------------------------| 
|-------------------------------------| 
|-0--0--0--0--0--0--0--0--------------| 
|-12-13-12-10-12-10-12-13-7-7-7b8r7-5-| 
|-------------------------------------| 
|-------------------------------------| 

|--------------------------------| 
|--------------------------------| 
|-0--0--0--0--0--0--0--0---0-0-0-| 
|-12-13-12-10-12-10-12-13\-3-3-3-| 
|--------------------------------| 
|--------------------------------| 

|---------------------|---------------------| 
|---------------------|---------------------| 
|---------------------|-5-5-5-5-5-x-x-8-8-8-| 
|-5-5-x-x-8-x-x-2-2-2-|-5-5-5-5-5-x-x-8-8-8-| 
|-5-5-x-x-8-x-x-2-2-2-|-3-3-3-3-3-x-x-6-6-6-| 
|-3-3-x-x-6-x-x-0-0-0-|---------------------| 

|-------------------------------------| 
|-------------------------------------| 
|-0--0--0--0--0--0--0--0--------------| 
|-12-13-12-10-12-10-12-13-7-7-7b8r7-5-| 
|-------------------------------------| 
|-------------------------------------| 

|--------------------------------| 
|--------------------------------| 
|-0--0--0--0--0--0--0--0---0-0-0-| 
|-12-13-12-10-12-10-12-13\-3-3-3-| 
|--------------------------------| 
|--------------------------------| 
  w/ ad libs 

|---------------------|---------------------| 
|---------------------|---------------------| 
|---------------------|-5-5-5-5-5-x-x-8-8-8-| 
|-5-5-x-x-8-x-x-2-2-2-|-5-5-5-5-5-x-x-8-8-8-| 
|-5-5-x-x-8-x-x-2-2-2-|-3-3-3-3-3-x-x-6-6-6-| 
|-3-3-x-x-6-x-x-0-0-0-|---------------------| 

|---------------------|---------------------| 
|---------------------|---------------------| 
|---------------------|-5-5-5-5-5-x-x-8-8-8-| 
|-5-5-x-x-8-x-x-2-2-2-|-5-5-5-5-5-x-x-8-8-8-| 
|-5-5-x-x-8-x-x-2-2-2-|-3-3-3-3-3-x-x-6-6-6-| 
|-3-3-x-x-6-x-x-0-0-0-|---------------------| 

Na 2ª parte soa como se houvesse outra guitarra

|-------------| 
|-------------| 
|---11---12---| 
|---12---12---| 
|--(10)-(10)--| 
|-------------| 
| 
|-------------| 
|-------------| 
|-------------| 
|----4---5----| 
|----5---5----| 
|----3---3----|

|---------------------|---------------------| 
|---------------------|---------------------| 
|---------------------|-5-5-5-5-5-x-x-8-8-8-| 
|-5-5-x-x-8-x-x-2-2-2-|-5-5-5-5-5-x-x-8-8-8-| 
|-5-5-x-x-8-x-x-2-2-2-|-3-3-3-3-3-x-x-6-6-6-| 
|-3-3-x-x-6-x-x-0-0-0-|---------------------|
Acordes para:

    0 comentários

      mostrar mais comentários

      Conseguiu tocar?

      0tocaram0ainda não

      Grave um vídeo tocando A Kiss To Send Us Off e mande pra gente!

      00:00 / 00:00
      outros vídeos desta música
      repetirqualidadeautomática
      Outro vídeos desta música
        00:00 / 00:00
        automática
        OK