Cifra Club

A Kiss To Send Us Off

Incubus

Tab de baixo: Principal
exibições 462
Album      Light Grenades
Tabbed by  Leo_Lance
Tuning     Standard E A D G


Intro.-

B-||------------------------------------------------------|
D-||------------------------------------------------------|
A-||-------------------------------------3-3-3-3-6-6------|
E-||-3-3-6-0-0---3-3-6-0-0---3-3-6-0-0--------------------|


Verse.-

B-||------------------------------------------------------|
D-||------------------------------------------------------|
A-||-10-12-13-------10-12-13-6----------------------------|   x2
E-||----------11------------------------------------------|


Coro.-

B-||------------------------------------------------------|
D-||------------------------------------------------------|
A-||-------------------------------------3-3-3-3-6-6------|   x2
E-||-3-3-6-0-0---3-3-6-0-0---3-3-6-0-0--------------------|


Interlude.-
[Overdrive]

B-||------------------------------------------------------|
D-||------------------------------------------------------|
A-||-------------------------6-6--6-6-6--6-6-6--6-6-------|
E-||-3-3--3-3-3--3-3-3--3-3-------------------------------|


Verse.-

B-||------------------------------------------------------|
D-||------------------------------------------------------|
A-||-10-12-13-------10-12-13-6----------------------------|   x2
E-||----------11------------------------------------------|

Coro.-

B-||------------------------------------------------------|
D-||------------------------------------------------------|
A-||-------------------------------------3-3-3-3-6-6------|   x4
E-||-3-3-6-0-0---3-3-6-0-0---3-3-6-0-0--------------------|


Nada


B-||------------------------------------------------------|
D-||------------------------------------------------------|
A-||------------10----------------------------------------|  
E-||---3--------------------------------------------------|

B-||------------------------------------------------------|
D-||------------------------------------------------------|
A-||-------------------------------------3-3-3-3-6-6------|   x2
E-||-3-3-6-0-0---3-3-6-0-0---3-3-6-0-0--------------------|



Comments to *
enjoy!

0 comentários

    mostrar mais comentários

    Conseguiu tocar?

    0tocaram0ainda não

    Grave um vídeo tocando A Kiss To Send Us Off e mande pra gente!

    00:00 / 00:00
    outros vídeos desta música
    repetirqualidadeautomática
    Outro vídeos desta música
      00:00 / 00:00
      automática
      OK