Cifra Club

Are You In?

Incubus

Tab de baixo: Principal
exibições 7.287
Introdução
G]-14/16-|-------|-14h16p14---|
D]-14/16-|-------|---------16-|     
A]-------|-14----|------------|     
E]-------|---14\-|------------|
     A       B          C

Toque: AAB AAB AC


Verso
G]----------------|-----2---4p2-|------------|
D]----------------|--4-2-(2)----|------------|
A]-5--5-2-0--2----|-------------|-2-2-0-0-2--|
E]------------0-2-|-2-2---------|----------0-|
    Principal         Final 1       Final 2

Refrão
G]-----------------------------------------------------------------|
D]-------------------------------------------------------------0h2-|
A]-5-5-5-5--------------------------5-5-5-5-----------------0h2----|
E]---------5-5-5-5-2-2-2-2-2-2-2-2----------5-5-5-5-2-2-2-2--------|
           
Ponte
G]-------------------|
D]--------5---7------|
A]-------7---9--10-7-|
E]-3-0--7---7--7-----|

Depois da ponte
G]-14h16p14---|
D]---------16-|
A]------------|
E]------------|

0 comentários

    mostrar mais comentários

    Conseguiu tocar?

    0tocaram0ainda não

    Grave um vídeo tocando Are You In? e mande pra gente!

    00:00 / 00:00
    outros vídeos desta música
    repetirqualidadeautomática
    Outro vídeos desta música
      00:00 / 00:00
      automática
      OK