Cifra Club

Are You In Intro

Incubus

Cifra: Principal
exibições 3.706
Tom: C
Tabbed by: jps19

*to all of us without bass guitars!!! rock on!!!!
this is 100 frickin % accurate!!!!!


E|------------------------------------------------|
B|------------------------------------------------|
D|-2h4p2------------------------------------------|
G|-------4p2--------------------------------------|
A|----------*5--5p2-0-----------------0-0h2p0-----|
E|---------------------0h1-2--0-2p0-2-------------|


E|---------------------------------------------|
B|---------------------------------------------|
D|---------------------------------------------|
G|-5-5p2-0-------------------------------------|
A|-----------------2-2-0-0h2p0-----------------|(repeat *)
E|----------0h1-2------------------------------|
Acordes para:

    0 comentários

      mostrar mais comentários

      Conseguiu tocar?

      0tocaram0ainda não

      Grave um vídeo tocando Are You In Intro e mande pra gente!

      00:00 / 00:00
      outros vídeos desta música
      repetirqualidadeautomática
      Outro vídeos desta música
        00:00 / 00:00
        automática
        OK