Cifra Club

Certain Shade Of Green Solo

Incubus

Cifra: Principal
exibições 597
Tom: A
#This file is the author's own work and represents their interpretation of the#
#song. You may only use this file for private study, scholarship, or research.#


Transcribed by: sebastian giancaspro
Email: *


----------9-8-7-5-5-7-5---------------------------------------------------9---|
-------------------------7-7-5/6-5-7-5---3-5-5/7-5---5---6-6/8-6-6p5-5-3/79---|
--4/6-4/6------------------------------7-----------7---7------------------9---|
------------------------------------------------------------------------------|
------------------------------------------------------------------------------|
------------------------------------------------------------------------------|

-9-x-10-10/12-12-12-12p10-9-10-9----9b9-7h9-9/10-9/10-9-7-5h7-7-7/8-8-8-8-8---|
-9-x-----------------------------12-------------------------------------------|
-9-x--------------------------------------------------------------------------|
------------------------------------------------------------------------------|
------------------------------------------------------------------------------|
------------------------------------------------------------------------------|

------------------------------------------------------------------------------|
------------------------------------------------------------------------------|
------------------------------------------------------------------------------|
------------------------------------------------------------------------------|
------------------------------------------------------------------------------|
------------------------------------------------------------------------------|

0 comentários

    mostrar mais comentários

    Conseguiu tocar?

    0tocaram0ainda não

    Grave um vídeo tocando Certain Shade Of Green Solo e mande pra gente!

    00:00 / 00:00
    outros vídeos desta música
    repetirqualidadeautomática
    Outro vídeos desta música
      00:00 / 00:00
      automática
      OK