Tatati

Inti-Illimani

tom: E Afinação: E A D G B E
E|------5------5-5-5-5-5-3-----5------5-5-5-5-5-3----|
B|-7-0-----7-0-------------7-0---7-0-----------------|
G|---------------------------------------------------|
D|---------------------------------------------------|
A|---------------------------------------------------|
E|---------------------------------------------------|

E|-----3-----3-3-3-7-7-0-----0-----0-0-0-0-0--|
B|-5-0---5-0-------------1-0---1-0-----------3|
G|--------------------------------------------|
D|--------------------------------------------|
A|--------------------------------------------|
E|--------------------------------------------|

E|------5------5-5-5-5-5-3-----5------5-5-5-5-5-3----|
B|-7-0-----7-0-------------7-0---7-0-----------------|
G|---------------------------------------------------|
D|---------------------------------------------------|
A|---------------------------------------------------|
E|---------------------------------------------------|

E|-----3-----3-3-3-7-7-0-----0-----0-0-0-0-0--|
B|-5-0---5-0-------------1-0---1-0-----------3|
G|--------------------------------------------|
D|--------------------------------------------|
A|-------------------------------------------|
E|--------------------------------------------|

E|---------------------------7-----7-7-7-7-7-5|
B|-0-0-3-0-0-4-4-4-4-4-5-8-0---8-0------------|
G|--------------------------------------------|
D|--------------------------------------------|
A|--------------------------------------------|
E|--------------------------------------------|

E|-----5-----5-5-------------5-----5-5----------|
B|-7-0---7-0-----7-7-4-5-7-0---7-0-----7-7-4-5-7|
G|----------------------------------------------|
D|----------------------------------------------|
A|----------------------------------------------|
E|----------------------------------------------|


Ahora viene la parte de la quena (pero en guitarra)

E|---10------8-10-12-13-12---10------8-10-12-13-12-|
B|-8----8-12---------------8----8-12---------------|
G|-------------------------------------------------|
D|-------------------------------------------------|
A|-------------------------------------------------|
E|-------------------------------------------------|

E|----10------------8-10-12----10------------8-10-12|
B|----------8-10-12------------------8-10-12--------|
G|-10----10-----------------10----10----------------|
D|--------------------------------------------------|
A|--------------------------------------------------|
E|--------------------------------------------------|

E |-13-12-10-10-8-7-8-12-10-8-6-6-5-3-4-
B|-------------------------------------|
G|-------------------------------------|
D|-------------------------------------|
A|-------------------------------------|
E|-------------------------------------|

Ahora la segunda parte de la guitarra


E|------10------10-10-10-10-10-8-------10-----10-10-10-10-|
B|-12------12---------------------12------12--------------|
G|----9-------9----------------------9-------9------------|
D|--------------------------------------------------------|
A|--------------------------------------------------------|
E|--------------------------------------------------------|

E|-10-8-----8------8-8-8-12-12-5-----5-----5-5-5-5-5---|
B|------10----10-----------------6-5---6-5------------8|
G|---------9-----9-------------------------------------|
D|-----------------------------------------------------|
A|-----------------------------------------------------|
E|-----------------------------------------------------|

E|------10------10-10-10-10-10-8-------10-----10-10-10-10-|
B|-12------12---------------------12------12--------------|
G|----9-------9----------------------9-------9------------|
D|--------------------------------------------------------|
A|--------------------------------------------------------|
E|--------------------------------------------------------|

E|-10-8-----8------8-8-8-12-12-5-----5-----5-5-5-5-5---|
B|------10----10-----------------6-5---6-5------------8|
G|---------9-----9-------------------------------------|
D|-----------------------------------------------------|
A|-----------------------------------------------------|
E|-----------------------------------------------------|

E|------------------------------12------12-12-12-12-12-10|
B|-5-5-8-5-5-9-9-9-9-9-10--13------13--------------------|
G|----------------------------9-------9------------------|
D|-------------------------------------------------------|
A|-------------------------------------------------------|
E|-------------------------------------------------------|

/: E |------10-----10-10-----------
B|-12------12--------12-12-9-10|
G|----9-------9----------------|
D|-----------------------------|
A|-----------------------------|
E|-----------------------------| :/    x4
Página 1 / 1

Letras e título
Acordes e artista

resetar configurações
OK